Nem Sei

Victor e Leo

 Victor e Leo
Tom: D(acordes na forma do tom C)
Capotraste na 2ª casa		
Intro (Solo)


         Am	          G	       F                   G
E|--------------|----------3--|-----------------1------|--------|
B|---1--------1-|---0---------|---1--------1-----------|---0----|
G|---2-----2----|-------------|----------2-------------|--------|
D|-------2------|-------0-----|-------3--------------3-|--------|
A|---0----------|-------------|------------------------|--------|
E|--------------|---3---------|---1--------------------|---3----|



         Am	          G	       F
E|--------------------|----------3-|-----------------1------|
B|---1------0h1h0-----|---0-----0--|---1--------1---1-------|
G|---2-----2--------2-|------------|----------2------2------|
D|-------2------------|-------0----|-------3---------3------|
A|---0----------------|------------|----------------- 3-----|
E|--------------------|---3------3-|---1--------------1-----|


Am      F          E  E7 E
Nem sei, o que dizer
Am             G         F
A emoção tomou conta de mim
Dm                       E              Am   G
É como ver o sol nascer, pela primeira vez
          F       G                 Am    G
Quando me lembro do brilho dos nos olhos
            F         E  E7 E
E do seu sorriso pra mim

(Refrão)

F                          C
Baby, quando você chega tudo vira verão
             G              Am         G
E um fogo ardente, aquece o meu coração
F                         C
Baby, quando você fica comigo
           G             Am
Viro um menino, me transformo
  G           F
E nem me reconheço
        C         G         F
Baby, você é tão linda que nem sei
         Am  G  F
Se te mereço
6.861 exibições

Comentários 1

  • Thiago Nato Thiago Nato: Postado em 02/11/2013 16:26

    Na minha opinião a segunda melhor desse cd novo! Victor e Leo é bala demais! :D

Composição: Victor Chaves
Esse não é o compositor? Avise-nos.
Contribuição: Renan Correções: JoséNeto& e mais 2 »
Exibir acordes »
publicidade
fechar