Tem Que Ser Você

Victor e Leo

 Victor e Leo
É apenas o acompanhamento, mas como nao tinha ainda eu aproveitei pra deixar aqui.

Bass 1

|------------
|------------
|-----5----5-
|--3----3---- 

Bass 2
|---------------
|---------------
|--3----------5-
|-----3--5-5----

Refrão

|-------------
|--------2----
|-----5-----3-   3X
|--3----------  

|------------------|----------------------
|---------2~-------|----------------------
|-----5------------|--3---5----3--5-------
|--3---------------|-------------------3--

____________________________________________________


Intro: ( G  D/F#  G  D/F# ) 4X

Bass 1
Um dia seus pés vão me levar
Onde as minhas mãos não podem chegar

Bass 2
Me leva onde você for
Estarei muito só sem o seu amor
Agora é a hora de dizer

Refrão
Que hoje eu te amo
Não vou negar              
Que outra pessoa não servirá     

Tem que ser você    
Sem por que, sem pra que
Tem que ser você
Sem ser necessário entender 

Introdução 2X

Solo

Bass 2
Me leva onde você for
Estarei muito só sem o seu amor
Agora é a hora de dizer

Refrão
Que hoje eu te amo
Não vou negar              
Que outra pessoa não servirá

Tem que ser você     
Sem por que, sem pra que
Tem que ser você
Sem ser necessário entender 

Refrão
Que hoje eu te amo
Não vou negar             
Que outra pessoa não servirá


Tem que ser você        
Sem por que, sem pra que
Tem que ser você
Sem ser necessário entender

Solo Intro.

Comentários 0

Composição: Victor Chaves
Esse não é o compositor? Avise-nos.
Contribuição: Romulation
Consegui tocarAinda não conseguiram tocar essa música. Seja o primeiro!
    Não consegui tocar
    publicidade
    fechar