Vida Boa

Victor e Leo

 Victor e Leo
Tom: F#(acordes na forma do tom D)
Capotraste na 4ª casa		

E|-------------2---0-----2---0-----0---0------0----0-----2---2-----2---2-----0---0----|
B|--2---3--5----3---3-3---3---3-3---2----2-2---2----2-2---3---3-3---3---3-3---0---0-0-|
G|--------------2---2-----2---2-----2----2-----2----2-----4---4-----4---4-----0---0--|
D|------------0---------0------------------------------------------------------------|
A|--0---2--4-----------------------0----------0----------2---------2-------------2----|
E|---------------------------------------------------------------------------0--------|


(a música inteira é nesse dedilhado, mas a intro só fica nos acordes D e D9)

(intro 4x) D D9

D             D9
Moro num lugar
                 A
Numa casinha inocente do sertão
                Bm
De fogo baixo aceso no fogão
        Em       A
Fogão à lenha ai ai


E|-------------|
B|--2---3--5---|
G|------------|
D|------------|
A|--0---2--4---|
E|-------------|


D              D9
Tenho tudo aqui
                 A
Umas vaquinha leiteira, um burro bão
              Bm
Uma baixada ribeira, um violão
         Em       A
E umas galinha ai ai


E|-------------|
B|--2---3--5---|
G|------------|
D|------------|
A|--0---2--4---|
E|-------------|


Bm
Tenho no quintal
           F#m
Uns pé de fruta e de flor
         Em
E no meu peito por amor
              A
Plantei alguém / Plantei alguém

(nessa parte o Victor monta o acorde de lá maior, bate e abafa as cordas)


E|-------------|
B|--2---3--5---|
G|------------|
D|------------|
A|--0---2--4---|
E|-------------|


(refrão)
D           D9
Que vida boa
            A
Uôu uôu uôu que vida boa
      Bm
Sapo caiu na lagoa
            Em             A
Sou eu no caminho do meu sertão   (2x)

(intro 4x) D D9

D              D9
Vez e outra vou
                 A
Na venda do vilarejo pra comprar
                           Bm
Sal grosso, cravo e outras coisa que fartar
        Em       A
Marvada pinga ai ai


E|-------------|
B|--2---3--5---|
G|------------|
D|------------|
A|--0---2--4---|
E|-------------|


D                D9
Pego o meu burrão
                    A
Faço na estrada a poeira levantar
                      Bm
Qualquer tristeza que for não vai passar
        Em       A
Do mata-burro ai ai


E|-------------|
B|--2---3--5---|
G|------------|
D|------------|
A|--0---2--4---|
E|-------------|


Bm
Galopando vou
          F#m
Depois da curva tem alguém
           Em
Que chamo sempre de “meu bem"
            A
a me esperar / a me esperar


E|-------------|
B|--2---3--5---|
G|------------|
D|------------|
A|--0---2--4---|
E|-------------|


(refrão 4x)

Comentários 5

Composição: Victor Chaves
Esse não é o compositor? Avise-nos.
Contribuição: Lipe.com Correções: Ramon e mais 2 »
Exibir acordes »
publicidade
fechar