Você Sabia

Victor e Leo

 Victor e Leo
Tom: C
		

E|------8-8------------8-5-----------5-----|
B|----8-----8--------8-----5-------5-------|
G|--5---------5(4x)5---------5(4x)---------|
D|-----------------------------------------|
A|-----------------------------------------|
E|-----------------------------------------|



E|--5-----5-----5----7-----7-----7---5-----|
B|----6-----6-----6----6-----6-----6---6---|
G|------5-----5----------5-----5---------5-|
D|-----------------------------------------|
A|-----------------------------------------|
E|-----------------------------------------|



E|--5-----5---7-----7-----7----------------|
B|----6-----6---8-----8-----8--------------|
G|------5---------7-----7------------------|
D|-----------------------------------------|
A|-----------------------------------------|
E|-----------------------------------------|


(o Victor toca com capotraste na 5a casa,entao se for utilizá-lo diminua 2 tons e meio,
que fica igual a tocada pela dupla)

C                                       Am
Foi um sentimento que aos poucos tomou conta sem deixar espaço
F                     Dm         F               G
Fiquei completamente louco, completamente apaixonado
C                                  Am
Aos olhos de quem está de fora, parece coisa de novela
F                   Dm     F                  G
Dai o sentimento aflora, magia que ninguém espera

C                           Am
Tudo aconteceu no sonho ninguém como você sabia
F                          Dm                   F                  G
Que dentro do meu peito estava um coração que amava e por você sorria
C                           Am
Até que você foi embora deixou de vez o meu caminho
F                   Dm                  F                   G
Quem sorria agora chora dessa nossa história vou lembrar sozinho...

Refrão:
        C                             Am
Você sabia que mesmo me deixando eu iria
                         F     Dm                        G
Ficar te esperando todo dia fugindo de mim mesmo pra tentar te esqueçer
mas muito mais eu lembraria...
C                                 Am
Sabia, que mesmo me deixando eu iria
                   F     Dm                        G
Ficar te esperando todo dia fugindo de mim mesmo pra tentar te esquecer
                                C
mas muito mais eu lembraria... sozinho


Solo: Am  F  Dm  G
E|-----------------------------------------|
B|-------8---8---8---8---8---8/10---10-----|
G|---5-5---5---5---5---5---5------5----5---|
D|-----------------------------------------|
A|-----------------------------------------|
E|-----------------------------------------|



E|-----------------------------------------|
B|---10---10---10---10/13---13---13-13-10--|
G|------5----5----5-------5----5-----------|
D|-----------------------------------------|
A|-----------------------------------------|
E|-----------------------------------------|



E|-----------------------------------------|
B|---10-8-8/10---10---13-13-10-13/15-------|
G|---------------10------------------------|
D|-----------------------------------------|
A|-----------------------------------------|
E|-----------------------------------------|


C                           Am
Tudo aconteceu no sonho ninguém como você sabia
F                          Dm                   F                  G
Que dentro do meu peito estava um coração que amava e por você sorria
C                           Am
Até que você foi embora deixou de vez o meu caminho
F                   Dm                  F                   G
Quem sorria agora chora dessa nossa história vou lembrar sozinho...

        C                             Am
Você sabia que mesmo me deixando eu iria
                         F     Dm                        G
Ficar te esperando todo dia fugindo de mim mesmo pra tentar te esqueçer
mas muito mais eu lembraria...(2x)
   C
Sozinho.

Comentários 9

Composição: Victor Chaves / Leo Chaves
Esse não é o compositor? Avise-nos.
Contribuição: amaurywalbert Correções: lukinhas , Muleque Brinca e mais 3 »
Exibir acordes »
publicidade
fechar