Confia em mim

Vida Reluz

 Vida Reluz
Tom: C
		
(intro) C9  F F/G Em Am Dm/Bb F/G

C9               F           G          C9
Vem, que a tempestade já não pode te abalar,
      F            G      E/G#  Am              F         Dm7
a segurança em meu barco encontrarás, confia em mim, o meu amor te
       G
abrigará.

C9             F         G            C9
Sei que angustiado o coração se endureceu,
         F          G              Am           F           Dm7
Mas eu entendo tudo o que te aconteceu, ainda é tempo de voltar para
        G
o teu Deus.

          C9                   E7                       Am
Não tenhas medo, pois eu estou aqui! É o teu Senhor quem diz
 F7+    Dm7    G            C9               E7
Quero guiar os passos teus. Vem entrega-te então,
                    Am
Farei morada em teu coração.
   C9          F       C9               F
E quando anoitecer, cansado eu te encontrar.
     Am    Am7+/G#        Am7/G      Em9/F#     C9
No silêncio teu        eu irei te consolar, nos braços meus
   Fm7
descansarás.
C9     E7    Am  Am/F#  C9     G  F7+
Forças te darei,        forças te darei.

(solo)

     G        C9           F         F/G      C9
E|------------------------------------------------------------|
B|----------------5------------------5------------------------|
G|-------5---5h7~-----------5---5h7~----7-5-5--4-4------------|
D|-5-5-7---7----------5-5-7---7---------------------7--5~-----|
A|------------------------------------------------------------|
E|------------------------------------------------------------|



                        F   E/G#    Am         Am7M     Am
E|---------------------------------------------7/8-7-5---------|
B|-------------5/6-5----------------8---8h10-8---------4/5-3---|
G|---------5-7-------7-5-5~---7-8-9---9------------------------|
D|----5-7------------------------------------------------------|
A|--8----------------------------------------------------------|
E|-------------------------------------------------------------|



                  F7M         Dm7M   F/G       G
E|------------------------------------8/12--8-7-----------------------------------|
B|----------------------------------8-----------8/10-8----------------------------|
G|--5-5---5-5h7---5---5-5h7-7/9---9-----------------------9-10-9h10-9-7-5---------|
D|------7-------7---7----------------------------------10-------------------------|
A|--------------------------------------------------------------------------------|
E|--------------------------------------------------------------------------------|



     G                  G7
E|-----------------5-7-8~-----|
B|-----------5-6-8------------|
G|-----4-5-7------------------|
D|-5-7------------------------|
A|----------------------------|
E|----------------------------|


Não tenhas medo...
164.481 exibições

Comentários 0

Composição: Cristina de Pádua Lorençoni
Esse não é o compositor? Avise-nos.
Contribuição: Furby Correções: joaofelipe.freitas.524 , jean e mais 2 »
Exibir acordes »
publicidade
fechar