Deus Imenso

Vida Reluz

 Vida Reluz
Tom: G
		
A9          F#m
Não sou nada,  eu bem sei
Bm    Bm/A              D/E            E
Tão pequeno, um grão de areia em tuas mãos
A9         F#m
Barco à vela, que se abandona
D       Bm             E           E7
Segue o rumo e vai buscando o alto mar
A9               F#m
Assim me encontro, diante de Ti
D        Bm            D/E         E7/G#
Um Deus imenso que por amor se deixa alcançar

A9                    F#m
Te adorarei, meu Deus, enquanto eu existir
D       Bm         G            E7
Proclamarei as maravilhas que fizeste em mim
A9                    F#m
O teu calor me envolve, o teu olhar me acalma
D        Bm             G             E7
E em teus braços o teu amor / Inflama minha alma
A9                 F#m                    D  Dm/G
Que posso mais dizer, se o coração já disse!
    A9  F#m   D/E   E7   A7+/9
Te amo


                A                                               F#m
|--------21---19--16-17-16----14--12-------------------------------------------------------------------------------|
|---------------------------------------------------------------------------------------------------------------------------|
|-12----------------------------------------------------------------------------------------------------------------------|
|--------------------------------------------------14p9h11--14p9h11--14p9h11--14p9h11--14p9h11------|
|---------------------------------------------------------------------------------------------------------------------------|
|---------------------------------------------------------------------------------------------------------------------------|



  	D
|-----------------------------------------------------------------------16--17--14--------------------------------------|
|---------------------------------------------------------------------------------------------------------------------------|
|--------------------------------------------11-----------------11---------------------------6--7------6--7--6--------|
|--14p9h11--14p9h11--14p9h11--------11-------11----------------------------9----------9------------------|
|------------------------------------------------------12-----------------------------------------------------------------|
|---------------------------------------------------------------------------------------------------------------------------|



                                    G  E                                  A
|---------------------------------------------------------------------------------------------------------------------------|
|-----------------------8----------------------5--7--9--10--------------------------------------------------------------|
|-----6--7--9--7--6--7--------------4--6-------------------------------------------------------------------------------|
|--9------------------------4--6--7--------------------------------------------------------------------------------------|
|---------------------------------------------------------------------------------------------------------------------------|
|---------------------------------------------------------------------------------------------------------------------------|



SOLO VERSÃO II



E|--------|----19--19---19---1617-16-----------------------
B|-8~~~~--|---b1---b1-----------------17/19-17~~~~---------
G|--------|------------------------------------------------
D|--------|------------------------------------------------
A|--------|------------------------------------------------
E|--------|------------------------------------------------




E|-------------------------      e|-------------------------
B|-------------------------      b-------------------------
G|-9--2---4-9-4--2--------- 3X   g-9--2---4-9-4-11~~-------
D|-t--------m t-m----------      d-t--------m t-m--t-------
A|-------------------------      a-------------------------
E|-------------------------      e|-------------------------




E|-------------------------|-------14/16-17--14---
B|-------------------------|--14--------------------
G|-------------------------|-------------------------
D|--7-6-7-6---7------------|-------------------------
A|----------9--------------|-------------------------
E|-------------------------|-------------------------




E|-----------------------------------------------
B|-----------------------------------------------
G|---------------------------------------7/9-----
D|------9-11-12-11--9-11-12-11-9-----------------
A|-----------------------------------------------
E|-----------------------------------------------



E|----------3-----------
B|----------3-----------
G|---7-9----4-----------
D|----------5-----------
A|----------5-----------
E|----------3-----------



E|--------------------------
B|-------------5--7-9-10----
G|---------4-6--------------
D|--4-6-7-------------------
A|--------------------------
E|--------------------------
135.678 exibições

Comentários 0

Composição: Walmir Alencar / Fábio de Melo SCJ
Esse não é o compositor? Avise-nos.
Contribuição: Gustavo Cabrioli Correções: Jo Roberto e mais 2 »
Exibir acordes »
publicidade
fechar