Nossa Força

Vida Reluz

 Vida Reluz Compositor: walmir alencar
Tom: G
		
G                 Em        Am  D
A alegria do senhor é nossa força
Am               C          D4  D
A alegria do senhor é nossa força
Bm               E                        Am Bm Cm        Bm  E          Am  D      G        C/D
A alegria do senhor é nossa força , nossa força , nossa força, nossa força  é  o senhor jesus
G                 Em        Am  D
A alegria do senhor é nossa força
Am               C          D4  D
A alegria do senhor é nossa força
Bm               E                        Am Bm Cm        Bm  E          Am  D      Em
A alegria do senhor é nossa força , nossa força , nossa força, nossa força  é  o senhor jesus
  Bm           Em          Bm            Em    D/F# G D/F# G           D
Ele é a nossa razão! De lutarmos até o final! Sim ele é a luz que chegou
    Am  Bm  C     C#º       D
E  as  trevas  não puderam resistir
    E D/F G E/G#     Am  Bm  C C#º     D   C/D         G
Ele é o sol! Nossa canção reluzirá !   resplandecerá

       Am   Bm     Am          G
Nossa força  é  o senhor jesus
       Am   Bm     Am           G
A nossa força  é  o senhor jesus
       Am   Bm     Am         G
A nossa força  é o senhor jesus
       Am   Bm     Am          G
A nossa força é o senhor jesus

(solo)


E|-----------------------------------------------------------------------------------------|
A|--------8--7--8-----------------------8---7---------------------------7----8---10b-------|
D|-------------------9--9---7---------------------9----7------------7----------------------|
G|------------------------------9--7-----------------------7---9---------------------------|
B|---10------------------------------------------------------------------------------------|
E|-----------------------------------------------------------------------------------------|



E|-----------------------------------------------------------------------------------------|
A|--10b---10--8--10-----------------15---13-----12---10---8---------10--10---8-------------|
D|-------------------------------------------------------------9---------------------------|
G|-----------------------12---14-----------------------------------------------------------|
B|-----------------------------------------------------------------------------------------|
E|-----------------------------------------------------------------------------------------|


G                 Em        Am  D
A alegria do senhor é nossa força
Am               C          D4  D
A alegria do senhor é nossa força
Bm               E                        Am Bm Cm        Bm  E          Am  D      Em
A alegria do senhor é nossa força , nossa força , nossa força, nossa força  é  o senhor jesus
  Bm           Em          Bm            Em    D/F# G D/F# G           D
Ele é a nossa razão! De lutarmos até o final! Sim ele é a luz que chegou
    Am  Bm  C     C#º       D
E  as  trevas  não puderam resistir
    E D/F G E/G#     Am  Bm  C C#º     D   C/D         G
Ele é o sol! Nossa canção reluzirá !   resplandecerá

       Am   Bm     Am          G
Nossa força  é  o senhor jesus
       Am   Bm     Am           G
A nossa força  é  o senhor jesus
       Am   Bm     Am         G
A nossa força  é o senhor jesus
       Am   Bm     Am          G
A nossa força é o senhor jesus

( G   Am   Bm   Am ) (2x)
35.034 exibições

Comentários 1

Composição: Walmir Alencar
Esse não é o compositor? Avise-nos.
Contribuição: Neto Chiaradia Correções: Everton e mais 1 »
Exibir acordes »
publicidade
fechar