Me Derramar

Vineyard

 Vineyard Compositor: Craig Musseau
Tom: G
		

  Intro: G  D/F#  Em  C
E|-----------------3-x--0-0-----0------0-----3-3-3-3-3-3----||
B|-----------------3-x--3---3---0----0---0---3-3-3-3-3-3----||
G|---------0h2-----0-x--2-----2-0--0-------0-0-0-0-0-0-0----||
D|----0-2----------0-x--0-------2------------2-2-2-2-2-2----||
A|-----------------0-x--0-------2------------3-3-3-3-3-3----||
E|-----------------3-x--2-------0---------------------------||



        G  D/F#
Eis-me aqui outra vez
Em                C
Diante de Ti abro meu coração
      G         D/F#
Meu clamor Tu escutas
   Em               C
E fazes cair as barreiras sem mim
   G                D/F#
És fiel, Senhor, e dizes
   Em                C
Palavras de amor e esperança sem fim
     G     D/F#
Ao sentir Teu toque
     Em              C
Por Tua bondade libertas meu ser

Ponte:
   Am      G/B    C
No calor deste lugar
D
Eu venho ...

Refrão:
 G            D
Me derramar, dizer que Te amo
Em             C
Me derramar, dizer Te preciso
G             D
Me derramar, dizer que sou grato
Em             C                  ( G D Em C )-base dos instrumentos durante o solo
Me derramar, dizer que És formoso.

E|----------------------------------------|---------------------------------------------------------------|
B|---15/17----15b-------15----17----------|----15---------------------------------------------------------|
G|-------------------------16-------------|----14b------14b---12-----------12--------14b-14---------------|
D|----------------------------------------|-----------------------14--------------------------------14----|
A|----------------------------------------|---------------------------------------------------------------|
E|----------------------------------------|---------------------------------------------------------------|



E|--------------------------------------------------|-------------------------------------------------------|
B|--------------------------------------------------|------------------8---8-10--10-12--10----10------------|
G|---12---14---12/14--14/12--------7--------5-------|------------7---9----------------------9---------------|
D|-------------12/14--14/12-----7-----7-----5----5--|------5-7-9--------------------------------------------|
A|--------------------------------------------------|--5-7--------------------------------------------------|
E|--------------------------------------------------|-------------------------------------------------------|



E|--------------------------------------------|--------------------------10-12/15^--------|
B|-8-8\7/8\7------8^7-------------------------|----------------9--10--12------------------|
G|------------9-------9-----------------------|-------8--9--11----------------------------|
D|--------------------------------------------|--7--9-------------------------------------|
A|--------------------------------------------|-------------------------------------------|
E|--------------------------------------------|-------------------------------------------|
246.183 exibições

Comentários 9

  • Cayo Cayo: Postado em 26/08/2014 18:50

    Otima Musica ;) Recomendo Para Iniciantes :D

  • izak.ferreirasantos izak.ferreirasantos: Postado em 12/05/2014 22:54

    baixo cima cima baixo :Batida

  • Dksbk2 Dksbk2: Postado em 06/05/2014 20:30

    qual o ritmo original dessa músic?

  • rosinhaflora rosinhaflora: Postado em 17/04/2014 16:13

    Toquei no tom de A ficou show de bola =D

  • Camila Camila: Postado em 02/02/2014 10:34

    Faço Guarania lenta e da certinho!

  • pity pity: Postado em 18/01/2014 16:33

    ↓ ↓↑↑↓ ↓↑↑ eu faço assim

  • Jonathas Jonathas: Postado em 02/01/2014 13:29

    o ritmo é divido em três tempos: ↓ ↓↑↓↑

  • kazinho2012 kazinho2012: Postado em 28/02/2013 18:39

    uffa n sabia que esse hino era deles estava procurando em nivea soares

  • cmtealmeida cmtealmeida: Postado em 01/11/2012 19:23

    ↓ ↓↑ ↑↓ ↓↑↓↑

    ↓ ↓↑↓↑

Composição: Sabe quem é o compositor? Envie pra gente. Contribuição: Neto Correções: Fernanda , wscsfdsk8 e mais 5 »
Exibir acordes »
publicidade
fechar