Meu Respirar

Vineyard

 Vineyard
Tom: D
		
Intro: F  Bb

F             Bb
Este é o meu respirar
F             Bb
Este é o meu respirar
F    C      Dm
Teu Santo Espírito
Bb          C
vivendo  em mim

F      Bb
E este é o meu pão
F      Bb
E este é o meu pão
F C    Dm
Tua vontade
 Bb       C
feita  em mim

    F C Dm
E eu...
         Bb      Dm  C
Eu nada sou sem Ti
    F C Dm
E eu...
           Bb     Dm   C
Perdido estou sem Ti Jesus

volta ao inicio (vóz grosa)

G            C9
Este é o meu respirar
G            C9
Este é o meu respirar
G       D/F#      Em7
Teu Santo Espírito
      C9      D
Vivendo   em mim

G      C9
E este é o meu pão
G      C9
E este é o meu pão
G D/F#    Em7
Tua vontade
 C9     D4 D
feita  em mim

    G D/F# Em
E eu...
         C9      Em7  D
Eu nada sou sem Ti
    G D/F# Em
E eu...
         C9            D
Perdido estou sem Ti Jesus


  A9 A      D9     E/D  D9 A9 A        D9    E/D D9  A9  E C#m E  D9 F#m E4 E A9 A   D9   E/D D9
   e|-----5-5-----|-----5-5------------|-5-7-4-4-5-|-4-5-----|-----4/5-5/4----|
   B|---5---------|---5----------------|-----------|-------5-|---5---------7-7|
   G|-6-------7-7-|-6-------7-7--------|-----------|-----6---|-6--------------|
   D|-------------|--------------------|-----------|---------|----------------|
   A|-------------|--------------------|-----------|---------|----------------|
   E|-------------|--------------------|-----------|---------|----------------|


  A9    E  C#m   E   D9 F#m  E4 E    A9 E   F#m E       D9 F#m   E4  E     A9  E   F#m  E      D9 F#m  E4 E
E|-5-7-4-4-5---|-4-5--4-5-|-5/7-4-5-5/7-7/5-4-4-5-|------4-5-|-5/7-4-5-5/7-7/5-4-4-5-|
B|-------------|----------|-----------------------|-10/5-----|-----------------------|
G|-------------|----------|-----------------------|----------|-----------------------|
D|-------------|----------|-----------------------|----------|-----------------------|
A|-------------|----------|-----------------------|----------|-----------------------|
E|-------------|----------|-----------------------|----------|-----------------------|

Comentários 9

  • dougtoro dougtoro: Postado em 03/09/2013 11:58

    Olá, a paz! Eu e minha namorada fizemos um cover dessa música no violão! Se possível vejam lá! Valeu! :D
    /watch?v=DnxAKj9FqWA

    • zé zé: Postado em 30/08/2014 14:22

      PARABÉNS TOCA BEM

  • Thiago Thiago: Postado em 26/07/2013 12:44

    Acho que o tom é F

  • Thiago Thiago: Postado em 26/07/2013 12:43

    Acho que o tom é F

  • lfchaves lfchaves: Postado em 29/01/2013 14:27

    Esse louvor me toca muito no profundo Deus abençoe esse ministerio vineyard mais eu tbm queria saber o significado de vineyard

    • petersonbrito petersonbrito: Postado em 13/03/2013 10:52

      Olá, Vineyard significa "vinha ou vinhedo" "local onde se cultiva uvas"

  • ilata ilata: Postado em 18/01/2013 12:11

    Gosto mto desse hino.

  • oliiveyra oliiveyra: Postado em 15/11/2012 21:48

    muito legal!

  • plfn plfn: Postado em 04/10/2011 20:55

    ab

Composição: Sabe quem é o compositor? Envie pra gente. Contribuição: MixerMax Correções: matheus.marcolinolamberti , Matheus e mais 13 »
Exibir acordes »
publicidade
fechar