Ai Que Saudade D'ocê

Vital Farias

Sem foto do Vital Farias Compositor: Vital Farias
Tom: 
		

E|-----------------------|------------------------|--------------------------|
B|--------5----7----5----|--7----5----12----10----|--12----10----12----10----|
G||*-------7----7----7----|--7----7----12----12----|--12----12----12----------|
D||*-------6----6----6----|--6----6----11----11----|--11----11----11----------|
A|-----------------------|------------0-----------|--0-----------0-----------|
E|---0-------------------|--0---------------------|--------------------------|



--------------||-------|------|-----------------0h---|--4---------0h---4----|
--12----5-----||-------|------|------------0---------|------------0---------|
--------7----*||*------|------|-------1--------------|------------1---------|
--------6----*||*------|------|----------------------|----------------------|
--------------||-------|------|----------------------|----------------------|
--------0-----||-------|------|--0-------------------|-------0--------------|



------------0h---4----|-------0----2----0----|--2----0----0h---4----|
------------0---------|-------0----0----0----|--0---------0---------|
------------1---------|-------1----1----1----|--1---------1---------|
----------------------|----------------------|----------------------|
----------------------|----------------------|----------------------|
--0----0--------------|--0-------------------|------------0---------|



--0h---4----0h---4----|--0h---4-----||
--0---------0----0----|--0----------||
--1---------1----1----|--1---------*||
----------------------|------------*||
----------------------|-------------||
--0---------0---------|-------------||

Comentários 1

  • edi edi: Postado em 19/04/2012 19:02

    Galera, não esqueçam de assistir o vídeo desta música no youtube digite Ednaldo262

Composição: At The Cross / Jack Rollins
Esse não é o compositor? Avise-nos.
Contribuição: edi
Consegui tocarAinda não conseguiram tocar essa música. Seja o primeiro!
    Não consegui tocar
    Exibir acordes »
    publicidade
    fechar