Tom: 
		

B|---------7--5---------10--7---10-10--8-8--7-7--5-5-----7------------
G|--7--9---------7---7--------------------------------7---------------
D|--------------------------------------------------------------------
A|--------------------------------------------------------------------
E|--------------------------------------------------------------------




E|--------------------------------------------------------------------
B|--------7--5-----------10--7---10-10--8-8--7-7--5-5-----------------
G|--7--9--------7---7----------------------------------7-7------------
D|--------------------------------------------------------------------
A|--------------------------------------------------------------------
E|--------------------------------------------------------------------

Comentários 0

Composição: David Singer / Tom Shapiro
Esse não é o compositor? Avise-nos.
Contribuição: Ruan
Exibir acordes »
publicidade
fechar