Tom: A
		
INTRO 2x: A E F#m
         (D A E)


        A    /    E    /  F#m       Bm  /   A   / E
E|---------------------------|----------------------------
B|---------------------------|----------------------------
G|---------------------------|----------------------------
D|---------------------------|----------------------------   (2x)
A|-----4---------------------|---4-5-------4--------------
E|-5-7---5---4-5-7-4---2-----|-7-----7-5-7---5--4---------


    A
Nas horas difíceis da vida,
         E
Eu pude cantar
               D
As notas mais lindas
                A
Que existem no ar. O mundo inteiro em mim não
        E
Acreditava,
              D
E às vezes zombava dizendo:
                 A E   A
Onde esta o teu Deus? Dentro do meu coração
          E
Havia uma guerra,
           D
E mesmo cansado, eu insisti
     A     E       A
Em lutar (lute).E quando arrastava no chão,
         E
Cai ao solo,
               D
E sentir suas mãos me pegarem
     A
No colo.

Riff 1:


E|------------------------
B|------------------------
G|------------------------
D|------------------------
A|-----4------------4-----
E|-5-7---5-4-5-7-4--2-----


       F#m            Bm
Essas mãos eram de Jesus!
 E                 A   A E F#m
(Jesus), Mãos do Deus forte.

Riff 2:


E|----------------------
B|----------------------
G|-----6--------------6-
D|-7-9---7-6-7-9-6-4--4-
A|----------------------
E|----------------------


                  Bm
Descobrir, o porquê
        D                 E
De ter forças pra cantar e pra vencer.

A    D A                       E
Lute!   A guerra não está perdida;
                      D
Há uma esperança na vida;
                       A E
Foi Deus quem deu pra você.
A    D A                E
Lute!   E não olhe de lado;
                   D
Esqueça o seu fracasso;
                  A
Olhe em frente e vai.

  Bb  Eb Bb                      F
Lute!      A guerra não está perdida;
                     Eb
Há uma esperança na vida;
                          Bb  F
Foi Deus quem deu pra você.
Bb   Eb Bb                F
Lute!     E não olhe de lado;
                   Eb
Esqueça o teu fracasso;
                 Bb   Eb
Olhe em frente e vai


Riff 3: A|--3-5-6--
        E|-6-------


Bb Eb           Bb Eb          Bb
Lute!  Riff 3   Lute!  Riff 3  Lute!
45.316 exibições

Comentários 0

Composição: David Singer / Tom Shapiro
Esse não é o compositor? Avise-nos.
Contribuição: tiagocorsi Correções: lolxxx »
Exibir acordes »
publicidade
fechar