Pra Que ?

Voz da Verdade

 Voz da Verdade Compositor: willian
Tom: E
		

   Intro: F#m  G#m  A9  E  F#m  A  A9 E
E|----------------------5-4----------------4-4-5-6-6-5-4------------4-----------------------------|
B|-----7h9-7-5-7--7h9-2-----5-7-9-9----------------------5-------5----5-7-5-----------------------|
G|-----------------------------------1h2-------------------4-4-6----------------------------------|
D|------------------------------------------------------------------------------------------------|
A|------------------------------------------------------------------------------------------------|
E|------------------------------------------------------------------------------------------------|


E         F#m G#m  A9        E
Vou lhe falar,     de um alguem
           F#m G#m  A9           E
Que pode levar,     seus sonhos além
           F#m G#m  A9         E
Vou lhe mostrar,    um mundo melhor
       F#m G#m  A9    B/A   G#m
Que mudara      seu caminho
          A9           B/A
Vou lhe falar de um só deus
        G#m      C#m
Que mudará a sua vida
C#m/B      A9                B/A
Na cruz morreu, doou o seu sangue
         G#m           C#m   C#m/B
Só pra curar as suas feridas
       A9            B/A
E este homem esta aqui
           G#m         B
So pra te amar e pra dizer (2x)


   Intro: F#m  G#m  A9  E F#m A A9 E
E|----------------------5-4----------------4-4-5-6-6-5-4------------4----------------------------|
B|-----7h9-7-5-7--7h9-2-----5-7-9-9----------------------5-------5----5-7-5----------------------|
G|-----------------------------------1h2-------------------4-4-6---------------------------------|
D|-----------------------------------------------------------------------------------------------|
A|-----------------------------------------------------------------------------------------------|
E|-----------------------------------------------------------------------------------------------|


     E       C#m    G#m
Pra quê? chorar, sofrer
         A9            B           E
Se ha um Deus que tudo pode por você
    C#m     G#m
Pra quê? solidão
      A9              B               E
Deixe jesus cristo entrar no teu coração(2x)

Solo: C#m  G#m  A9  B

    C#m     G#m
Pra quê? solidão
      A9              B               E
Deixe jesus cristo entrar no teu coração
56.216 exibições

Comentários 0

Composição: David Ruis
Esse não é o compositor? Avise-nos.
Contribuição: Willian Correções: jesse.florentino.3 , keven e mais 6 »
Exibir acordes »
publicidade
fechar