Pra Que ?

Voz da Verdade

 Voz da Verdade Compositor: willian
Tom: E
		

 Intro: F#m  G#m  A9  E  F#m  A  A9 E
E|----------------------------------------------------------------------------------------|
B|----------------------------------------------------------------------------------------|
G|----------------------------------------------------------------------------------------|
D|---------------------------4-4--------------------------6--4--6-------------------------|
A|------9---7--5--7--9-10---------9--10--12-12--10--9--5------------9-7--5-5---5-5-5-5-5-5|
E|----------------------------------------------------------------------------------------|


E         F#m G#m  A9        E
Vou lhe falar,     de um alguem
           F#m G#m  A9           E
Que pode levar,     seus sonhos além
           F#m G#m  A9         E
Vou lhe mostrar,    um mundo melhor
       F#m G#m  A9    B/A   G#m
Que mudara      seu caminho
          A9           B/A
Vou lhe falar de um só deus
        G#m      C#m
Que mudará a sua vida
C#m/B      A9                B/A
Na cruz morreu, doou o seu sangue
         G#m           C#m   C#m/B
Só pra curar as suas feridas
       A9            B/A
E este homem esta aqui
           G#m         B
So pra te amar e pra dizer (2x)


 Intro: F#m  G#m  A9  E F#m A A9 E
E|----------------------------------------------------------------------------------------|
B|----------------------------------------------------------------------------------------|
G|----------------------------------------------------------------------------------------|
D|---------------------------4-4--------------------------6--4--6-------------------------|
A|------9---7--5--7--9-10---------9--10--12-12--10--9--5------------9-7--5-5---5-5-5-5-5-5|
E|----------------------------------------------------------------------------------------|

[/ab#inicio]

     E       C#m    G#m
Pra quê? chorar, sofrer
         A9            B           E
Se ha um deus que tudo pode por você
    C#m     G#m
Pra quê? solidão
      A9              B               E
Deixe jesus cristo entrar no teu coração(2x)

Solo: C#m  G#m  A9  B

    C#m     G#m
Pra quê? solidão
      A9              B               E
Deixe jesus cristo entrar no teu coração
Texto Colunas
Alterar tom ½ tom ½ tom
afinação acordes na letra esconder tabs mais »
53.277 exibições

Comentários (0)

Composição: David Ruis
Esse não é o compositor? Avise-nos.
Contribuição: Willian Correções: keven , Massuno23 e mais 3 »
  1. Tudo Que Você Quiser - Luan Santana Manteve-se 5.990 exibições
  2. Lepo Lepo - Psirico Manteve-se 4.438 exibições
  3. Mozão - Lucas Lucco Manteve-se 4.146 exibições
  4. Logo Eu - Jorge e Mateus Manteve-se 3.992 exibições
  5. Pra Você - Onze:20 Manteve-se 3.594 exibições
  6. Gaveta - Fernando e Sorocaba Manteve-se 3.572 exibições
  7. Só Os Loucos Sabem - Charlie Brown Jr. Manteve-se 3.053 exibições
  8. Fui Fiel - Gusttavo Lima Manteve-se 2.616 exibições
  9. Tempo Perdido - Legião Urbana Manteve-se 2.603 exibições
  10. Na Linha do Tempo - Victor e Leo Manteve-se 2.151 exibições
  1. Jorge e Mateus- Manteve-se 23.713 exibições
  2. Legião Urbana- Manteve-se 20.945 exibições
  3. Luan Santana- Manteve-se 17.298 exibições
  4. Charlie Brown Jr.- Manteve-se 17.152 exibições
  5. Fernandinho- Manteve-se 14.628 exibições
  6. Thalles Roberto- Manteve-se 11.183 exibições
  7. Católicas- Manteve-se 11.175 exibições
  8. Gusttavo Lima- Manteve-se 10.712 exibições
  9. Victor e Leo- Manteve-se 10.599 exibições
  10. Aline Barros- Manteve-se 10.088 exibições
Exibir acordes »

Cifras e tabs

Fórum Cifra Club

Aprenda

Cifra Club News

Mais Serviços Cifra Club ID

Studio Sol

©1996 - 2014 Cifra Club · o primeiro, maior e mais acessado do Brasil · 329 mil músicas · 5.9 milhões pessoas cadastradas

publicidade
fechar