Projeto no Deserto

Voz da Verdade

 Voz da Verdade
Tom: C
		
Intro:


       Am          F9           C             G
E|------------------0---------------------3---------|
B|---------1----------1----1---------1--------------|
G|-------2--------------2----------0----------------|
D|-----2---------3--------3-3----2------------------|    (2x)
A|---0-------------------------3--------5--------3-0|
D|--------------------------------------5-----3h5---|


Solo de guitarra:


E|------------------------------5-7-7/8-7-5-7/10-7-5--5/12-15----17-17---|
B|--5-8-8/10-10-8-10-8--------5----------------------8--------15---------|
G|---------------------10-9-7--------------------------------------------|
D|-----------------------------------------------------------------------|
A|-----------------------------------------------------------------------|
E|-----------------------------------------------------------------------|


Am       F          C             G          Am
Um povo em pleno deserto a nuvem estava por perto
           F        C                G       Am
Não tinha fome nem sede, pois Deus estava com ele
           F           C           G      Am
Um povo em pleno deserto e não havia doentes
          F         C           G            Am
Maná que vinha do céu matava a fome daquela gente
           F          C             G           Am
As pernas nunca inchavam as roupas nunca envelheciam
         F        C            G             Am
Sapatos não terminavam pelo caminho que seguiam
 F          C     G             Am
Que Deus é este? Que está por perto
 F         C      G           Am
Que fez o seu projeto no deserto

Comentários 92

  • lucas lucas: Postado em 29/12/2014 16:32

    Eu queria era a vídeo aula.por favor cifra club,você fez a vídeo aula da música sonda-me, por quer que vocês não faz desta musica?

  • pablo pablo: Postado em 23/11/2014 16:35

    muito legall

  • jeferson.luan.9400 jeferson.luan.9400: Postado em 30/09/2014 13:01

    facil mas como e o ritmo

  • Anderson Anderson: Postado em 16/09/2014 12:16

    simplificado o solo, mas tah bom demais! Queria o da guitarra tbm!! Mas tah massa!! heheh

  • Kallita Kallita: Postado em 18/07/2014 19:08

    Nossa Essa musica é muito facil de tocar

  • dede dede: Postado em 11/03/2014 23:00

    ae voo subirr os solos corrigidos pro guitar pro e em texto

  • eduardo eduardo: Postado em 28/02/2014 14:59

    ba so o final do solo ta errado o da guitarra o 2
    mas vlw me ajudo mt

  • fabiano.marinho.758 fabiano.marinho.758: Postado em 27/02/2014 19:33

    Faz Vídeo
    aula Por favor !!

  • jcao0903 jcao0903: Postado em 22/02/2014 11:11

    se fosse musica do mundo ja teria dado ate video aula

    • Naama Naama: Postado em 12/05/2014 19:52

      vdd.

Exibindo 11 de 92 comentários Mostrar mais ver todos »
Composição: David Singer / Tom Shapiro
Esse não é o compositor? Avise-nos.
Contribuição: andrecastro Correções: douglas , Daniel e mais 12 »
Exibir acordes »
publicidade
fechar