Projeto no Deserto

Voz da Verdade

 Voz da Verdade
Tom: C
		
Intro:


E|---------------------------------------------------------------------------------|
B|---------------------------------------------------------------------------------|
G|----------------------------------------0-0-0-0-0--------------------------------|
D|----0-0-0-0-0---------------0-0-0-0--3\5-5-5-5-5---7-7-7-7-7--3-3-3-3--5-5-5-5-5-|
A|-3\5-5-5-5-5--3-3-3-3-3--3\5-5-5-5-----------------------------------------------|
D|---------------------------------------------------------------------------------|



E|------------------------0--|
B|------------------------3--|
G|------------------------2--|
D|-3-3-3-3p2-0------------0--|
A|-------------3-3-3-3\5--0--|
D|------------------------0--|



E|------------------------------------0---------------|
B|------------------------------------3--------3-3-3--|
G|-0-0\5-5-5-5-5\4-4-4-4-4\3-3-3-3-3--2--2-2-2--------|
D|-2-2\3-3-3-3-3\2-2-2-2-2\1-1-1-1-1--0---------------|
A|------------------------------------0--0-0-0-0-0-0--|
D|------------------------------------0---------------|

                                      ↑↑


E|---------------------------------------------------------------|
B|-\5--5-5-5-5-5--6-6-6-6--8-8-8-8--10-10-10-10---13-13-13-13----|
G|---------------------------------------------------------------|
D|---------------------------------------------------------------|
A|---------------------------------------------------------------|
D|----0-0-0-0-0--0-0-0-0--0-0-0-0--0--0--0--0----0--0--0--0----0-|




E|------------------------------------------------------------|
B|12-12-12---10--8-8-8-8---11-11-11-11---10-10-10--5-5-5-5-7--|
G|------------------------------------------------------------|
D|------------------------------------------------------------|
A|------------------------------------------------------------|
D|--0--0----0---0-0-0-0---0--0--0--0----0--0--0------------0--|



E|---------------------------0-----|
B|---------------------------3-----|
G|---------------------------2-----|
D|-------0-3-0-------0-------0-----|
A|-0-0-3-------0-0-3---------0-----|
D|---------------------3-0---0---|



      Am    F   C    G
E|------------------------------|
B|----1----1----1---------------|
G|---2----0----0----------------|
D|--2----3----2-----------------|
A|-0---------3------------2-0---|
D|----------------3\5-2h5-------|



      Am        F        G
E|--------------------2---------|
B|------1------1------2---------|
G|-----2------0-------0---------|
D|----2------3--↑↑-↑↓-0---------|
A|-0-0---↑↓↑----------2---------|
D|--------------------3--------|




---------------5h7p5------------------------------|e
---5-8-8--8b~----------8b~----8-6-5h6p5h6p5-------|B
--------------------------------------------5\7~--|G
--------------------------------------------------|D
--------------------------------------------------|A
--------------------------------------------------|E




------------------------------------------------|e
----10-12-12b--12pbr10-13b----13-12h13p12p-10\8~|B
--9---------------------------------------------|G
------------------------------------------------|D
------------------------------------------------|A
------------------------------------------------|E



-------15--------------15b--|e
--15b-----15~---------------|B
----------------------------|G
----------------------------|D
----------------------------|A
----------------------------|E


Am       F          C             G          Am
Um povo em pleno deserto a nuvem estava por perto
           F        C                G       Am
Não tinha fome nem sede, pois Deus estava com ele
           F           C           G      Am
Um povo em pleno deserto e não havia doentes
          F         C           G            Am
Maná que vinha do céu matava a fome daquela gente
           F          C             G           Am
As pernas nunca inchavam as roupas nunca envelheciam
         F        C            G             Am
Sapatos não terminavam pelo caminho que seguiam
 F          C     G             Am
Que Deus é este? Que está por perto
 F         C      G           Am
Que fez o seu projeto no deserto


2º Solo Guitarra:


-------5--7-5--------------------7-8-10-10b~--8------------------15----------15b-|e
--8b~---------8-5~------------10----------------10~-----12-13-15-----15b--15-----|B
--------------------5\7~---------------------------------------------------------|G
---------------------------------------------------------------------------------|D
---------------------------------------------------------------------------------|A
---------------------------------------------------------------------------------|E



Solo do meio (violão)

-----------------------------------------------------------------|e
---------------------------------------10-12-13--13-13\12--8\10--|B
----2--4\5--4--2---------------------9---------------------------|G
-2----------------5-3-2--3--5------------------------------------|D
------------------------------3\5--------------------------------|A
-----------------------------------------------------------------|E


                                                 ^    ^ v ^  ^

-------8-10-12-12121212\13-10---5-8-------------/5----5-5-5\-x-|e
----8-------------------------------5-8---------/5----5-5-5\-x-|B
----------------------------------------5-7--------------------|G
--------------------------------------------5-7----------------|D
---------------------------------------------------------------|A
---------------------------------------------------------------|E


 v  ^ ^ ^

-3----------------------------------------|e
-3--5-5-3---------------------------------|B
----5-5-4---------5-5-------------7-7-4-4-|G
---------------5--7-7--5-------5--5-5-5-5-|D
-----------5-7-------------5-7------------|A
------------------------------------------|E
Texto Colunas
Alterar tom ½ tom ½ tom
afinação acordes na letra esconder tabs mais »

Comentários (85)

  • dede dede: Postado em 11/03/2014 23:00

    ae voo subirr os solos corrigidos pro guitar pro e em texto

  • eduardo eduardo: Postado em 28/02/2014 14:59

    ba so o final do solo ta errado o da guitarra o 2
    mas vlw me ajudo mt

  • fabiano.marinho.758 fabiano.marinho.758: Postado em 27/02/2014 19:33

    Faz Vídeo
    aula Por favor !!

  • jcao0903 jcao0903: Postado em 22/02/2014 11:11

    se fosse musica do mundo ja teria dado ate video aula

  • Edigleison Edigleison: Postado em 31/01/2014 12:55

    VIDEO AULA POR FAVOR!!!!

  • angela angela: Postado em 16/01/2014 14:46

    é fácil de + mas tem que ter vídeo aula

  • Charles Charles: Postado em 14/01/2014 00:39

    oo solo bom te tocar!!

  • David David: Postado em 01/01/2014 15:44

    Alguém sabe a Batida?

    • Gustavo Gustavo: Postado em 26/03/2014 09:41

      e meio um fox bem rapidão brow mas temq ver o video clipe para saber as qebradas no meio da musica ;)

  • Naama Naama: Postado em 09/12/2013 08:48

    video aula por favor

Exibindo 10 de 85 comentários Mostrar mais ver todos »
Composição: David Singer / Tom Shapiro
Esse não é o compositor? Avise-nos.
Contribuição: andrecastro Correções: dede , lolxxx e mais 8 »
  1. Tudo Que Você Quiser - Luan Santana Manteve-se 6.037 exibições
  2. Lepo Lepo - Psirico Manteve-se 4.468 exibições
  3. Mozão - Lucas Lucco Manteve-se 4.227 exibições
  4. Logo Eu - Jorge e Mateus Manteve-se 3.853 exibições
  5. Gaveta - Fernando e Sorocaba Manteve-se 3.342 exibições
  6. Pra Você - Onze:20 Manteve-se 3.171 exibições
  7. Só Os Loucos Sabem - Charlie Brown Jr. Manteve-se 3.013 exibições
  8. Tempo Perdido - Legião Urbana Manteve-se 2.451 exibições
  9. Fui Fiel - Gusttavo Lima Manteve-se 2.434 exibições
  10. Na Linha do Tempo - Victor e Leo Manteve-se 2.183 exibições
  1. Jorge e Mateus- Manteve-se 22.974 exibições
  2. Legião Urbana- Manteve-se 20.295 exibições
  3. Luan Santana- Manteve-se 17.553 exibições
  4. Charlie Brown Jr.- Manteve-se 17.249 exibições
  5. Fernandinho- Manteve-se 14.873 exibições
  6. Thalles Roberto- Manteve-se 11.307 exibições
  7. Católicas- Manteve-se 10.786 exibições
  8. Victor e Leo- Manteve-se 10.519 exibições
  9. Gusttavo Lima- Manteve-se 10.295 exibições
  10. Aline Barros- Manteve-se 10.226 exibições
Exibir acordes »

Cifras e tabs

Fórum Cifra Club

Aprenda

Cifra Club News

Mais Serviços Cifra Club ID

Studio Sol

©1996 - 2014 Cifra Club · o primeiro, maior e mais acessado do Brasil · 329 mil músicas · 5.9 milhões pessoas cadastradas

publicidade
fechar