Projeto no Deserto

Voz da Verdade

 Voz da Verdade
Tom: C
		
Intro: Am   F   C   G

   Am       F          C             G          Am
Um povo em pleno deserto a nuvem estava por perto
           F        C                G       Am
não tinha fome nem sede pois Deus estava com ele 
           F           C           G      Am
um povo em pleno deserto e não havia doentes
          F         C           G            Am
maná que vinha do céu matava a fome daquela gente
           F          C             G           Am
as pernas nunca inchavam as roupas nunca envelheciam
         F        C            G             Am
sapatos não terminavam pelo caminho que seguiam
 F          C     G             Am
que Deus é este? Que está por perto
 F         C      G           Am
que fez o seu projeto no deserto

esse solo é o do violão
                                                            *      *

E|---------------------------------5-7-7h8-88-5-8-10-10/12--12-12-13-10----5-8----------3h5-5-5-5p3-3--5-5--4-
B|--------------------------------5------------8------------------------------5h8-------3h5-5-5-5p3-3--5-5--3
G|----2-4-4h5-5p4-2~~-------------------------------------------------------------5-7-5----------------------
D|--2---------------5p3p2--3-5-------------------------------------------------------7-----------------------
A|0---------------------------3/5~~--------------------------------------------------------------------------
E|-----------------------------------------------------------------------------------------------------------



G|---------------------------------------
D|-------5--7--7p5-----5--7--7p5--5\-----  (Am F G C 2X)
A|--5h7------------5h7------------------- Esta parte do solo se faz com staccato em algumas notas  
E|--------------------------------------- no demais ouça a musica para pegar o swing


* * As notas são tocadas em tremolo c/ palheta bem rapido

Comentários 91

  • pablo pablo: Postado em 23/11/2014 16:35

    muito legall

  • jeferson.luan.9400 jeferson.luan.9400: Postado em 30/09/2014 13:01

    facil mas como e o ritmo

  • Anderson Anderson: Postado em 16/09/2014 12:16

    simplificado o solo, mas tah bom demais! Queria o da guitarra tbm!! Mas tah massa!! heheh

  • Kallita Kallita: Postado em 18/07/2014 19:08

    Nossa Essa musica é muito facil de tocar

  • dede dede: Postado em 11/03/2014 23:00

    ae voo subirr os solos corrigidos pro guitar pro e em texto

  • eduardo eduardo: Postado em 28/02/2014 14:59

    ba so o final do solo ta errado o da guitarra o 2
    mas vlw me ajudo mt

  • fabiano.marinho.758 fabiano.marinho.758: Postado em 27/02/2014 19:33

    Faz Vídeo
    aula Por favor !!

  • jcao0903 jcao0903: Postado em 22/02/2014 11:11

    se fosse musica do mundo ja teria dado ate video aula

    • Naama Naama: Postado em 12/05/2014 19:52

      vdd.

Exibindo 10 de 91 comentários Mostrar mais ver todos »
Composição: David Singer / Tom Shapiro
Esse não é o compositor? Avise-nos.
Contribuição: andrecastro Correções: matheus92 , dede e mais 11 »
Exibir acordes »
publicidade
fechar