Voz da Verdade

Projeto no Deserto

450.153 exibições
Tom: C
Intro:

         Am          F9           C             G
E|------------------0---------------------3---------|
B|---------1----------1----1---------1--------------|
G|-------2--------------2----------0----------------|
D|-----2---------3--------3-3----2------------------|    (2x)
A|---0-------------------------3--------5--------3-0|
D|--------------------------------------5-----3h5---|

Solo de guitarra:

                                                 ^
|-0p3---5---5p8p5-3h5------------------------5-7-7-7-5-8h10--8-7-5---10h12-14-10--14h17--|
|-----------------------8-5-5p6p5--8--------5---------------------8----------------------|
|------------------------------------7---------------------------------------------------|
|----------------------------------------------------------------------------------------|
|----------------------------------------------------------------------------------------|
|----------------------------------------------------------------------------------------|

1ª Parte:

Am       F          C             G          Am
Um povo em pleno deserto a nuvem estava por perto
           F        C                G       Am
Não tinha fome nem sede, pois Deus estava com ele
(F C G Am)
           F           C           G      Am
Um povo em pleno deserto e não havia doentes
          F         C           G            Am
Maná que vinha do céu matava a fome daquela gente
(F C G Am)
           F          C             G           Am
As pernas nunca inchavam as roupas nunca envelheciam
         F        C            G             Am
Sapatos não terminavam pelo caminho que seguiam
(F C G Am)
 F          C     G             Am
Que Deus é este? Que está por perto
 F         C      G           Am
Que fez o seu projeto no deserto


E|---3h5---5-7-5h3--------------5--7--8--10h12--8-5----5-7-8-----14--12-10--14h17-|
B|----------------5--5p6h5--------------------------------------------------------|
G|--------------------------------------------------------------------------------|
D|--------------------------------------------------------------------------------|
A|--------------------------------------------------------------------------------|
D|--------------------------------------------------------------------------------|

2ª Parte:

Am       F          C             G          Am
Um povo em pleno deserto a nuvem estava por perto
           F        C                G       Am
Não tinha fome nem sede, pois Deus estava com ele
(F C G Am)
           F           C           G      Am
Um povo em pleno deserto e não havia doentes
          F         C           G            Am
Maná que vinha do céu matava a fome daquela gente
(F C G Am)
           F          C             G           Am
As pernas nunca inchavam as roupas nunca envelheciam
         F        C            G             Am
Sapatos não terminavam pelo caminho que seguiam
(F C G Am)
 F          C     G             Am
Que Deus é este? Que está por perto
 F         C      G           Am
Que fez o seu projeto no deserto
 F          C     G             Am
Que Deus é este? Que está por perto
 F         C      G           Am
Que fez o seu projeto no deserto


E|----------------------------------------5-7-7h8-8h7--3h5-----8-10-10h12-12-12-12p13h12|
B|---------------------------------------5--------------------8-------------------------|
G|----2-4-4h5--4--2---------------------------------------------------------------------|
D|---2------------------5-2-3-5---------------------------------------------------------|
A|------------------------------3h5-----------------------------------------------------|
D|--------------------------------------------------------------------------------------|

E|--5p8---------------------------------------------------------------------------------|
B|-----5p8------------------------------------------------------------------------------|
G|--------5p7-5---10--10-10-10/8/6/5/3-3--------0-2-2-2-0-----2-2-0-0-------------------|
D|-----------7-----9---9--9--9/9/7/5/4-4-----0p2-----------0p2--------------------------|
A|--------------------------------------------------------------------------------------|
D|--------------------------------------------------------------------------------------|

Intro:

3ª Parte:

 F          C     G             Am
Que Deus é este? Que está por perto
 F         C      G           Am
Que fez o seu projeto no deserto
 F          C     G             Am
Que Deus é este? Que está por perto
 F         C      G           Am
Que fez o seu projeto no deserto
    Composição: Carlos A. MoysésColaboração e revisão:
    • Leonardo.MateusR00
    • NAEL
    • Daniel
    • marcos.renan.77582
    • +12

    Comentários 97

    140 .
    • Carlos Alexandre Carlos Alexandre: Em 24/06/2015 14:57

      qual e a batida pfv
      ??

    • JonasRafael9 JonasRafael9: Em 02/05/2015 09:53

      mt linda e mt fácil de tocar Obg Cifra Club :)

    • ismaelalexandre.macarini ismaelalexandre.macarini: Em 08/03/2015 20:07

      muito linda esta musica

    • lucas lucas: Em 29/12/2014 16:32

      Eu queria era a vídeo aula.por favor cifra club,você fez a vídeo aula da música sonda-me, por quer que vocês não faz desta musica?

    • pablo pablo: Em 23/11/2014 16:35

      muito legall

    • jeferson.luan.9400 jeferson.luan.9400: Em 30/09/2014 13:01

      facil mas como e o ritmo

      • gustavo gustavo: Em 05/02/2015 10:21

        o ritimo e de pop rock >>

    • Anderson Anderson: Em 16/09/2014 12:16

      simplificado o solo, mas tah bom demais! Queria o da guitarra tbm!! Mas tah massa!! heheh

    Exibindo 10 de 97 comentários Mostrar mais ver todos »
    140 cancelar

    conseguiu tocar?

    • Lucas Farias
    • Junior
    • Samzio
    • JonasRafael9
    • Matheus
    • anapaula.deoliveira.376695
    • nikitacancado
    • •••
    welton marques de melo8.833 visualizações
      ver covers de outras músicas »
      0:00 / 0:00

      Capítulos

        1 versão de baixo exibições contribuição e correção
        2 versões de Guitar Proformatodownloadscontribuição
        play/pausefechar subir/descer velocidade
        6ª corda E5ª corda A4ª corda D3ª corda G2ª corda B1ª corda E
          acordes
          publicidad
          fechar
          ok