Vale de Jaboque

Voz da Verdade

 Voz da Verdade
Tom: C
		
(intro)

(primeira parte)

              Am     Am      Em      Em      Em       Em        Am       Am
E|----------------------------------------------------------------------------------|
B|------1-------1--------0--------0--------0--------0--------1--------1-------------|
G|--------2-------2--------0--------0--------0--------0---------2--------2----------|
D|----2-------2---------2--------2--------2--------2-------2--------2---------------|
A|--0-------0--------2--------2--------2--------2--------0--------0-----------------|
E|----------------------------------------------------------------------------------|


(segunda parte)

              Am     Am      Em      Em      Em
E|----------------------------------------------------------------------|
B|------1-------1--------0--------0--------0----------------------------|
G|--------2-------2--------0--------0--------0------5-4-2--2-2-2-2-2-2--|
D|----2-------2---------2--------2--------2-----------------------------|
A|--0-------0--------2--------2--------2-------2-2----------------------|
E|----------------------------------------------------------------------|


(terceira parte)

              Am     Am      Em      Em      Em
E|---------------------------------------------------------------------------------|
B|------1-------1--------0--------0--------0----------------------1------------1---|
G|--------2-------2--------0--------0--------0-------3-2-0-----------2-----------2-|
D|----2-------2---------2--------2--------2---------------------2-----------2------|
A|--0-------0--------2--------2--------2-------2-2-0-------------------0-0----0----|
E|---------------------------------------------------------------------------------|


(última parte)

              Am     Am      Em      Em      Em
E|----------------------------------------------------------------------|
B|------1-------1--------0--------0--------0----------------------------|
G|--------2-------2--------0--------0--------0------5-4-2--2-2-2-2-2-2--|
D|----2-------2---------2--------2--------2-----------------------------|
A|--0-------0--------2--------2--------2-------2-2----------------------|
E|----------------------------------------------------------------------|


  Am			   G		         Dm
Foi no vale de Jaboque, que o meu nome mudou Transformou-me
                Am
num homem a imagem do Senhor
    Am			         G
O meu nome era Jacó, hoje ele é Israel
              Dm			    Am
Estou subindo a escada que me leva até o céu
C				G
Descem anjos, sobem anjos, o meu medo já se foi
  F			   E
Vão buscar a minha bênção da mão do meu Senhor
         C		  G
Eu estou maravilhado com esta bela visão
   F			   E
E hoje acordei com um novo coração


            Am     Am      Em      Em      Em
E|----------------------------------------------------------------------|
B|------1-------1--------0--------0--------0----------------------------|
G|--------2-------2--------0--------0--------0------5-4-2--2-2-2-2-2-2--|
D|----2-------2---------2--------2--------2-----------------------------|
A|--0-------0--------2--------2--------2-------2-2----------------------|
E|----------------------------------------------------------------------|


(2x)

             Am     Am      Em      Em      Em
E|----------------------------------------------------------------------|
B|----------------------------------------------------------------------|
G|-2~5--7-9-9-9-9--9-12-12-7-7-7-7--7-5-7-7-7-7--5-4-2----2-2-2-2-2-2---|
D|----------------------------------------------------------------------|
A|----------------------------------------------------------------------|
E|----------------------------------------------------------------------|



        A       E              Bm        F#m      D
Que brilha, que salta, que se alegra, no meu Senhor
        A         E           Bm       F#m        D
Que anseia, que deseja, estar perto do meu Criador

( A  E  Bm  F#m  D )

( A )
33.327 exibições

Comentários 4

  • bilinski bilinski: Postado em 31/05/2012 13:08

    Fácil,
    E Lindo de Mais este Louvor, Grande é o Senhor Digno de Toda Honra e toda Glória.

Composição: David Singer / Tom Shapiro
Esse não é o compositor? Avise-nos.
Contribuição: regisguita Correções: kelvin_azevedo , Niél e mais 2 »
Exibir acordes »
publicidade
fechar