Vale de Paz

Voz da Verdade

 Voz da Verdade
Tom: D
		

E|-0---0--------3---|------8--7-8----|-----------------------|
B|-------6--6-----3-|--3-----------6-|--6---6------------3-3-|
G|------------------|----------------|------------2-0--0-----|
D|------------------|----------------|----------3------------|
A|------------------|----------------|-----------------------|
E|------------------|----------------|-----------------------|



E|------3--3-1-1----------|----------3----0--0---0-|------8--7-8--|-1-1----------|
B|--1-1-----------1---3-3-|--------1----6------6---|--------------|--------------|
G|------------------------|------2-----------------|-7------------|--------------|
D|------------------------|------------------------|--------------|--------------|
A|------------------------|------------------------|--------------|--------------|
E|------------------------|------------------------|--------------|--------------|



E|----------------|--------------------5-5-|--7---3-0--0---|--------------|
B|--1--3-3--1-----|------------------------|---------------|--------------|
G|--------------0-|--0-----0-5----7-5------|---------------|--------------|
D|----------------|------7------7----------|---------------|--------------|
A|----------------|------------------------|---------------|--------------|
E|----------------|------------------------|---------------|--------------|
1.934 exibições

Comentários 0

Consegui tocarAinda não conseguiram tocar essa música. Seja o primeiro!
    Não consegui tocar
    Exibir acordes »
    publicidade
    fechar