Pedacinhos do Céu

Waldir Azevedo

 Waldir Azevedo
Tom: D
		
Afinação: E A D G B E
(1º parte):


e|-0--------0----0-------2---------2-----5-4--------0-5-|
B|--0-0-------0----1-0-----1-1-0-----1--------0-0-1-----|
G|------2-0-----0----------------2-----2----------------|
D|------------------------------------------------------|
A|------------------------------------------------------|
E|------------------------------------------------------|



e|---------4-2-4-2-5-5-4-4-2-7-9-7-5-7-5-5-7-5-4-0---------0---0----|
B|-------0-----------------------------------------0-0------0---1-0-|
G|-0-0-2-----------------------------------------------2-----0------|
D|-------------------------------------------------------0----------|
A|------------------------------------------------------------------|
E|------------------------------------------------------------------|



e|-2--------2--------5-7-5-4-----------------0-------0-3--|
B|--1-1-0-----1---1------------------------3---0----0-----|
G|--------2-----2---2--------2-2-2-2-0-2-0------0--0------|
D|------------------------------------------------3-------|
A|--------------------------------------------------------|
E|--------------------------------------------------------|



e|-7-7-7-7-5-4-5-7-5-4-5-1--------2-0---1----0------------|
B|-------------------------------0---0--------------------|
G|------------------------------0-----0--------0----------|
D|--------------------------0-2-----------0-2-------------|
A|--------------------------------------------------------|
E|--------------------------------------------------------|



(2ª Parte):

e|---------------------0-------------------5-----5-----5--------------|
B|------0-----0-----0----1-1-----1-0---------------0-0---0------------|
G|-----------------------------2-------3-4---3-4-----------2-0-2-0----|
D|--1-2---1-2---1-2----------4--------------------------------------4-|
A|--------------------------------------------------------------------|
E|--------------------------------------------------------------------|



e|-----------1---0-1-2-3-2-0-----------0-3-2---0---------|
B|---------0---2-------------0-------0-------0---2-1-----|
G|-2-0-------------------------0---0---------------------|
D|-----1-3-----------------------2-----------------------|
A|-------------------------------------------------------|
E|-------------------------------------------------------|



e|-2-2-4-2-0-------4------5-4-2--------------------------|
B|-----------1-0-0----0-2-------2------------------------|
G|--------------------------------3----------------------|
D|----------------------------------4-2-1-2--------------|
A|-------------------------------------------------------|
E|-------------------------------------------------------|



e|-------------------0------------------5----5----5-----------|
B|----0-----0-----0----1-1-----1-0-------------0-0-0----------|
G|---------------------------2------3-4--3-4--------3-0-2-0---|
D|-1-2--1-2---1-2----------4--------------------------------4-|
A|------------------------------------------------------------|
E|------------------------------------------------------------|



e|---------------0-1-2-3-2-0-------0-3-2---0--------|
B|---------0-1-2-------------0----0------0---2-1----|
G|-2-0-------------------------0-0------------------|
D|-----4-3----------------------2-------------------|
A|--------------------------------------------------|
E|--------------------------------------------------|



e|-------2-5-1-4-2------------------------------------------|
B|-----1-----------0-------------0--------------------------|
G|-0-2---------------0-------------2-0-----------0-----3-2--|
D|---------------------4-2-1-2-1-------4-2-1-2-4---2-0------|
A|----------------------------------------------------------|
E|----------------------------------------------------------|

Comentários 0

Composição: Barry Dean / Tiffany
Esse não é o compositor? Avise-nos.
Contribuição: andrecastro
Exibir acordes »
publicidade
fechar