O Céu Se Abre

Walmir Alencar

 Walmir Alencar Compositor: Gilberto Monteiro
Introdução:
G|---------------------------------|
D|---------------------------------|
A|-2-6-------0---------------------|
E|-----0-4-2-----------------------|

Riff 1:
G|---------------------------------|
D|---------------------------------|
A|-2-6---2-3------2-6---4-0--------|
E|-----0-----2-2------0-----2-2----|

Refrão:
G|---------------------------------|
D|---------------------------------|
A|-2-6------0----------------------|
E|-----0-4-2-----------------------|

Riff 2:
G|---------------------------------|
D|---------1-----------------------|
A|-----2---------------------------|
E|-4-0---2-------------------------|

Comentários 0

Composição: Sabe quem é o compositor? Envie pra gente. Contribuição: kedin Correções: jotah »
Consegui tocarAinda não conseguiram tocar essa música. Seja o primeiro!
    Não consegui tocar
    publicidade
    fechar