Sleeping In The Fire

W.A.S.P.

 W.A.S.P.
Tom: A#
		
++++++++++++++++++++++++++++++++++++++++++++++++++++++++++++++++++++++++++++
Sleeping in the Fire - W.A.S.P.
++++++++++++++++++++++++++++++++++++++++++++++++++++++++++++++++++++++++++++
Transcribed by Kostas Petropoulos

intro:

----------0---0---|-----------0--------|-----------0---------|
------------0---0-|-------------0------|-------------0-------|
----------------- |------7--------7----|------5--------5-----|
-----9------------|----7---7--------7--|----5---5--------5---|
---7---7----------|--5-----------------|--3------------------|
-0----------------|--------------------|---------------------|



------------0-----------------0------------|
--------------0-----------------0---0------|
----------------0-----------------0---0----|
-------9------------------9----------------|
-----7---7--------7-----7------------------|
---0------------------0--------------------|


                          E5      D5   C5  E5
Verse: pick as above        touch ........


chorus:
E5                                     C5
taste the love , the lucifers magic .........
                    D5
the passion and ..........
                        E5
youre sleeping in the fire

taste the love...

you feel what it does and.........

youre sleeping in the fire

C5 _ C5 _ D5 _riff*



*-riff--------------------------------------------|
*-------------------------------------------------|
*-----0-------------------------------------------|
*---2---4-0-2--0-2------or-----7-10-9-5-7--5s7----|
*-------------------------------------------------|
*-------------------------------------------------|

   C5
I gaze as.......riff
   C5
and cry out.....riff


ooh...C5_C5_A5_B5_B5


solo:


--12~--12-12~--12--12-14-15-14-12h14p12----12-12~---------12~--------------|
----------------------------------------15----------------------[15b17]----|
---------------------------------------------------------------------------|
---------------------------------------------------------------------------|
---------------------------------------------------------------------------|
---------------------------------------------------------------------------|




-12-14-15-14-12h14p12----12-12~----14~-14~-14-15-17-15-14h15p14-12-14------|
----------------------15---------------------------------------------------|
---------------------------------------------------------------------------|
---------------------------------------------------------------------------|
---------------------------------------------------------------------------|
---------------------------------------------------------------------------|




---12-14-15-14------12-14-15-15-14-12---15-14-12----15-14-12----15-14-12----|
15--------------15-------------------15----------15----------15----------15-|
----------------------------------------------------------------------------|
----------------------------------------------------------------------------|
----------------------------------------------------------------------------|
----------------------------------------------------------------------------|



---[12]-12-14-15-14-12h14p12----12--17b19r17-15-17~12-14-15-14-12h14p12-12-|
15---------------------------15----------------------------------------15--|
---------------------------------------------------------------------------|
---------------------------------------------------------------------------|
---------------------------------------------------------------------------|
---------------------------------------------------------------------------|



--12-14-15-14-12----12-14-15-14-12----15p14p12h15p14p12....----------------|
-----------------15----------------15--------------------------------------|
---------------------------------------------------------------------------|
---------------------------------------------------------------------------|
---------------------------------------------------------------------------|
---------------------------------------------------------------------------|



---------------------------------------------------------------------------|
---------------------------------------------------------------------------|
--16p14p12h16p14p12....14b16-----------------------------------------------|
---------------------------------------------------------------------------|
---------------------------------------------------------------------------|
---------------------------------------------------------------------------|


|-14t12t14t12...-----------------------------------------------------------|
|---------------13t12t13t12...---------------------------------------------|
|-----------------------------14t12t14t12...-------------------------------|
|-------------------------------------------14t12t14t12...-----------------|
|--------------------------------------------------------------------------|
|--------------------------------------------------------------------------|
|
|   very fast tapping with the side of the plectrum
|
|--13t12t14t12t15t12t16t12t17t12t18....22t12t23t12t24----------------------|
|--------------------------------------------------------------------------|
|--------------------------------------------------------------------------|
|--------------------------------------------------------------------------|
|--------------------------------------------------------------------------|
|--------------------------------------------------------------------------|

++++++++++++++++++++++++++++++++++++++++++++++++++++++++++++++++++++++++++++

Comentários 0

Composição: Helienne Swede / James Rich / Lessard
Esse não é o compositor? Avise-nos.
Consegui tocarAinda não conseguiram tocar essa música. Seja o primeiro!
    Não consegui tocar
    Exibir acordes »
    publicidade
    fechar