Charley

Whisky David

Sem foto do Whisky David
Tom: D
		
D/F#		G			A
I had a little dog, a long time ago
			D/F#
The only friend I ever had
		G	A
Just a little, little shaggy dog
			D/F#	C#  Bm
It wasn't really bad
Bm
I used to take him out in the street
Bm
Everywhere I went
A			D/F#   G    A
down to the pumping well
G
Then on that bar of wallking
G
a motor hit him
		D/F#   A
And i heard the news
D/F#
He used to wake me up
G		A
Every day
      D/F#
With his beady eyes
D/F#
And his feet
G		   A		     D/F#    C#    Bm
Scratching at my face, telling me it was time to rise

Out into the street
Bm
Over to the part
A			D/F#    G   A
Where he could run and play
G
But now that's all over

'Cause a motor  hit him
		D/F#    A
And took him away
D/F#
Charley my little friend
Bm
Charley my little dog
G			      A
Charley Charley my only friend
D/F#
Charley he was so nice
Bm
Charley don't you love daddy
G			      A
Charley Charley the only friend I ever had

(solo) ou durante o solo tocar:
D/F# G A D/F# G A

Após o solo continuar com esta sequencia...
Bm A D/F# G A G D/F# A

D/F#
Charley my little dog
Bm
Charley my little friend
G			      A
Charley only friend I ever had
G					D/F#
My little dog, he wasn't really bad No No No
G				D/F#
And now he's gone, thats why i feel

So very sad....sad
G
He used to wake me up, Every day
		D/F#
With his little beady eyes, and his little feet, his little feet, scratching at my face


E|------------------------------------------------------5---5---5/9-9-10---7/5------5-7-10-7--
B|-7-10-7------------------7-------------------7-8-----------------------------6/7------------
G|----------9-7-9-7/6/7------9-7----6---7-9---------------------------------------------------
D|-----------------------------------9--------------------------------------------------------
A|--------------------------------------------------------------------------------------------
E|--------------------------------------------------------------------------------------------



E|-7h5---7h5--------------------------------------------
B|-----8------8-7/10---10h8---10h8---7-10---------------
G|---------------------------------------------------7--
D|------------------------------------------------------
A|------------------------------------------------------
E|------------------------------------------------------
2.095 exibições

Comentários 1

  • sanderson1 sanderson1: Postado em 20/09/2013 10:09

    correçao da letra charley - whisky david


    I had a little dog, long time ago
    The only friend I ever had
    Just a little, shaggy dog
    It wasn`t

Composição: Sabe quem é o compositor? Envie pra gente. Contribuição: AndreSundays Correções: jodisi »
Consegui tocarAinda não conseguiram tocar essa música. Seja o primeiro!
    Não consegui tocar
    Exibir acordes »
    publicidade
    fechar