Youre All That I Need

White Lion

 White Lion
Tom: G
		
Transcribed by: kirk
Email: *


-------3-2---------0---2---2h3------------------------------------------------
---2-------2p0-------0---0----------------------------------------------------
-----0------------------------------------------------------------------------
-----------------2------------------------------------------------------------
-2-------------3--------------------------------------------------------------
 play the above twice and then                                                



-------------------------------------2---2h3-2--------------------------------
-------3-2---------0-------0-------3---3--------------------------------------
---2-------2p0-------0-------2---2--------------------------------------------
-----0-------------------2-----0----------------------------------------------
-----------------2-----0------------------------------------------------------
-2-------------3--------------------------------------------------------------

                                                                              


------------------------------------3-2-0-----------0-------------------------
-------3-2--------0---2---2h3---0---------0-------0---0-----------------------
---2------2p0-------0---0---------0-------------2-------2---------------------
-----0----------------------------------------2-----------2-------------------
----------------2---------------------------0---------------------------------
-2------------3---------------0-----------------------------------------------

                                                                              


-------2---2p3----------------------------------------------------------------
-----3---3---------0-------0--------------------------------------------------
---2-----------------0-------2------------------------------------------------
-0-----------------------2----------------------------------------------------
-----------------2-----0------------------------------------------------------
---------------3--------------------------------------------------------------

                                                                              


---------2---------------2---------------3---------------5--------------------
-----3-----3-----------3---3---------------3---------------5------------------
---2---2-----2-------4-------4---------4-----4---------6-----6----------------
-0-------------0---4-----------4-----5---------5-----7---------7--------------
-----------------2-----------------5---------------7--------------------------
---------------------------------3---------------5----------------------------

                                                                              


---------3-------3------------------------------------------------------------
-----------3-----3------------------------------------------------------------
-------4-----4---4------------------------------------------------------------
-----5---------5-5------------------------------------------------------------
---5-------------5------------------------------------------------------------
-3---------------3------------------------------------------------------------

                                                                              


----------2---------------3---------------5-----------------------------------
--------2---2---------------3---------------5---------------------------------
------4-------4---------4-----4---------6-----6-------------------------------
----4-----------4-----5---------5-----7---------7-----------------------------
--2-----------------5---------------7-----------------------------------------
------------------3---------------5-------------------------------------------

Comentários 0

Composição: Camille Purcell / Ike Turner / Niklas Strömstedt / Sydney
Esse não é o compositor? Avise-nos.
Consegui tocarAinda não conseguiram tocar essa música. Seja o primeiro!
    Não consegui tocar
    Exibir acordes »
    publicidade
    fechar