Love Ain't no Stranger

Whitesnake

 Whitesnake
intro:

0:51

G--------------------------------------
D--------------------------------------
A-------------------------7-5h---------
E-/-7-5-7h--7-5-7h-7-5-7---------------

verso:

G-----------------------------
D-----------------------------
A-------------------7-5-------
E-/-7-5-7-x-7-5-7-x-----------

G--------------------------------------
D--------------------------------------
A-------------------------7-5h---------
E-/-7-5-7h--7-5-7h-7-5-7---------------

G----------------------
D----------------------
A----------------------
E--7-5-7h--------------

refrão:

"love ain't no stranger..."

G------------------------
D------------------------
A---------5--------------
E-/-33333---55555--------

G----------------------
D----------------------
A-------5-5------------
E-33333-----555555-----

G------------------------
D------------------------
A---------5--------------
E-/-33333---55555--------

G----------------------
D----------------------
A-------5-5------------
E-33333-----555555-----

G---------------------------------------
D---------------------------------------
A--------------------------7-5h---------
E-/-7-5-7h--7-5-7h-7-5-7-7--------------



verso 2:

G-----------------------------
D-----------------------------
A-------------------7-5-------
E-/-7-5-7-x-7-5-7-x-----------

G--------------------------------------
D--------------------------------------
A-------------------------7-5h---------
E-/-7-5-7h--7-5-7h-7-5-7---------------

G----------------------
D----------------------
A----------------------
E--7-5-7h--------------

refrão:

"love ain't no stranger..."

G------------------------
D------------------------
A---------5--------------
E-/-33333---55555--------

G----------------------
D----------------------
A-------5-5------------
E-33333-----555555-----

G------------------------
D------------------------
A---------5--------------
E-/-33333---55555--------

G----------------------
D----------------------
A-------5-5------------
E-33333-----555555-----

solo:

G---------------------
D--------------------- 7x ( preste bem atenção na batida do bumbo )
A---------------------
E-2/33-/-5-77---------

G-----------------------
D-----------------------
A----7-7-7--------------
E-0/--------5-5h----------

pré-verso 3:

3:02

G---------------------------------------------
D---------------------------------------------
A---------14---------14----------7-5----------
E--7-5-7/-----7-5-7/-----7-5-7----------------

G--------------------------------------------
D--------------------------------------------
A---------14---------14---------7h-7-5-7-----
E--7-5-7/-----7-5-7/-----7-5-7---------------

verso 3:

G-----------------------------
D-----------------------------
A-------------------7-5-------
E-/-7-5-7-x-7-5-7-x-----------

G--------------------------------------
D--------------------------------------
A-------------------------7-5h---------
E-/-7-5-7h--7-5-7h-7-5-7---------------

G----------------------
D----------------------
A----------------------
E--7-5-7h--------------

refrão:

"love ain't no stranger..."

G------------------------
D------------------------
A---------5--------------
E-/-33333---55555--------

G----------------------
D----------------------
A-------5-5------------
E-33333-----555555-----

G------------------------
D------------------------
A---------5--------------
E-/-33333---55555--------

G----------------------
D----------------------
A-------5-5------------
E-33333-----555555-----

final:

G---------------------
D--------------------- 3x
A---------------------
E-2/33-/-5-77---------

G--------------------
D-------------------- 1x
A--------------------
E-2-3--5-5-77--------

Comentários 0

Composição: David Coverdale / Derek Bramble / Steve Bogarol / Tim James / TLC
Esse não é o compositor? Avise-nos.
Contribuição: celo
publicidade
fechar