And You and I

Yes

 Yes
Tom: G
		
And You and I

This is one of my favorite songs to play and i think its mostlycorrect i hope you all 
it.


E------------------------------------------------5-----7--12--|-----12-|
B------------------------------------------7--------------12--|--7-----|
G---------------------------------7-----------------------12--|--7-----|
D------------------------7-----5--------9-----------------12--|--7-----|
A---7--------7--------5-----------------------------------12--|--------|
E---------------7-----------------------------------------12--|--------|



E---|--------------------------------|----------------------------12--|----|
B---|----------12--------------------|-----------------12-------------|----|
G---|------12------------------------|------12----------------12------|----|
D---|--12------------------------12--|-------------12-----------------|----|
A---|------------------------12------|--12----------------------------|----|
E---|--------------------12----------|--------------------------------|----|



E------------------------------------------5--7--|-------------------------|
B------------------------------------7-----------|-----5--7-----------7----|
G------------------------------5--7--------------|--5--------------5-------|
D---------------------5--7-----------------------|--------------5----------|
A------------5--7--------------------------------|-------------------------|
E---5--7-----------------------------------------|-------------------------|



                                  end of harmonics

E---|--------------|--------7--|-----------------------------------||------|
B---|--------------|-----7-----|-----------------------------------||------|
G---|--------------|--5--------|-----------------------------------||------|
D---|--7-----------|-----------|-----------------------------------||------|
A---|-----7-----7--|-----------|-----------------------------------||------|
E---|--------5-----|-----------|-----------------------------------||------|



    0:31

E------------------5--------------|--------------5-----------|-------------|
B---------7-----0-----------------|-----7-----0--------------|-----7-------|
G------0--------------------------|--0-----------------------|--0----------|
D---------------------------------|-----------------------5--|-------------|
A------------------------------9--|--------------------0-----|-------------|
E---------------------------0-----|--------------------------|-------------|



E------5-----------|--------------5----------------|--------------5--------|
B---0--------------|-----7-----0-------------------|-----7-----0-----------|
G---------------9--|--0----------------------------|--0--------------------|
D------------0-----|-------------------------------|-----------------------|
A------------------|--------------------9\5-----5--|-----------------------|
E------------------|-----------------0-------------|-----------------------|



E--------------------|--------------5-----------||-------------------------|
B--------------------|-----7-----0--------------||-------------------------|
G--------------------|--0--------------------9--||-------------------------|
D------5\4--4--------|--------------------0-----||-------------------------|
A---0-------------0--|--------------------------||-------------------------|
E--------------------|--------------------------||-------------------------|




E---22222--x--3--x--55555--------------------------------------------------|
B---33333--x--5--x--77777---play over and over-----------------------------|
D---xxxxx--x--x--x--xxxxx--------------------------------------------------|
A---xxxxx--x--x--x--xxxxx--------------------------------------------------|
E---xxxxx--x--x--x--xxxxx--------------------------------------------------|


| /  slide up
| \  slide down
| h  hammer-on
| p  pull-off
| ~  vibrato
| +  harmonic
| x  Mute note
============================================================================

From: Ben DMB41LedZep

Comentários 1

  • vynny_15 vynny_15: Postado em 13/04/2012 17:06

    pensei que era mais dificil

Composição: Bill Bruford / Chris Squire / Dan Hill / Dave Ball / João Bosco / Jon Anderson / Noel Gallagher / Rosyl / Steve Howe / T. Savage
Esse não é o compositor? Avise-nos.
Exibir acordes »
publicidade
fechar