Bella's Lullaby

Yiruma

 Yiruma
Tom: A
		

E|---5--4--5--4--5-----5-----|------------|---5--4--5--4--5-----5----|
B|------------------5-----3--|----2-------|------------------5-----3-|
G|---------------------------|--2---------|--------------------------|
D|---------------------------|------------|--------------------------|
A|---------------------------|------------|--------------------------|
E|---------------------------|------------|--------------------------|



E|-------------|--5--4--5--4--5-----5--------------------------------|
B|----2--------|-----------------5------3---0h2--3--5-----2----------|
G|--2----------|--------------------------------------------4--------|
D|-------------|-----------------------------------------------------|
A|-------------|-----------------------------------------------------|
E|-------------|-----------------------------------------------------|



E|------------------------|------------------------------------------|
B|------------------------|--------5--------3---2---0----------------|
G|--2--1--2-----2--4/6----|-6--7-------------------------------------|
D|-----------2------------|------------------------------------------|
A|------------------------|------------------------------------------|
E|------------------------|------------------------------------------|



E|-------------|--5--4--5--4--5-----5--------------------9---7-------|
B|---2---------|-----------------5-----3----0h2---3--5---------------|
G|--2----------|-----------------------------------------------------|
D|-------------|-----------------------------------------------------|
A|-------------|-----------------------------------------------------|
E|-------------|-----------------------------------------------------|



E|---9--7--5--4--5--|------------------------------------|
B|------------------|--------------------5---------------|
G|------------------|--2--4--6----6--7--------7--6--4----|
D|------------------|------------------------------------|
A|------------------|------------------------------------|
E|------------------|------------------------------------|



E|--5--7--5--4--5-----|-5--7--5--4--5-----5--7--5--4--5--7--9--10--9-7-5-4|
B|-----------------5--|----------------5----------------------------------|
G|--------------------|---------------------------------------------------|
D|--------------------|---------------------------------------------------|
A|--------------------|---------------------------------------------------|
E|--------------------|---------------------------------------------------|



E|--5--7--5--4--5-----|--5--7--5--4--5------5--7--9--10--12--9--7--5--4---|
B|-----------------5--|-----------------5--------------------------------|
G|--------------------|--------------------------------------------------|
D|--------------------|--------------------------------------------------|
A|--------------------|--------------------------------------------------|
E|--------------------|--------------------------------------------------|



E|--5-5--7--5--4--5-----|-5--5--7--5--4--5------5--5--7--9--10--12--9--7--5--4--|
B|-------------------5--|-------------------5-----------------------------------|
G|----------------------|-------------------------------------------------------|
D|----------------------|-------------------------------------------------------|
A|----------------------|-------------------------------------------------------|
E|----------------------|-------------------------------------------------------|


E|--5-5--7--5--4--5-----|-5--5--7--5--4--5------5--5--7--9--10--12--9--7--5--4--|
B|-------------------5--|-------------------5-----------------------------------|
G|----------------------|-------------------------------------------------------|
D|----------------------|-------------------------------------------------------|
A|----------------------|-------------------------------------------------------|
E|----------------------|-------------------------------------------------------|



E|-------------|--5--4--5--4--5-----5--------------------------------|
B|-------------|-----------------5------3----0h2--3--5-----2---------|
G|--2---4------|--------------------------------------------4--------|
D|-------------|-----------------------------------------------------|
A|-------------|-----------------------------------------------------|
E|-------------|-----------------------------------------------------|



E|------------------------|------------------------------------------|
B|------------------------|--------5--------3---2---0----------------|
G|--2--1--2-----2--4--6---|-6--7-------------------------------------|
D|-----------2------------|------------------------------------------|
A|------------------------|------------------------------------------|
E|------------------------|------------------------------------------|



E|-------------|--5--4--5--4--5-----5--------------------9---7-------|
B|-------------|-----------------5------3---0h2--3--5----------------|
G|--2---4------|-----------------------------------------------------|
D|-------------|-----------------------------------------------------|
A|-------------|-----------------------------------------------------|
E|-------------|-----------------------------------------------------|



E|---9--7--5--4--5--|------------------------------------|
B|------------------|--------------------5---------------|
G|------------------|--2--4--6----6--7--------7--6--4----|
D|------------------|------------------------------------|
A|------------------|------------------------------------|
E|------------------|------------------------------------|



E|--5-5--7--5--4--5-----|-5--5--7--5--4--5------5--5--7--9--10--12--9--7--5--4--|
B|-------------------5--|-------------------5-----------------------------------|
G|----------------------|-------------------------------------------------------|
D|----------------------|-------------------------------------------------------|
A|----------------------|-------------------------------------------------------|
E|----------------------|-------------------------------------------------------|



E|--5-5--7--5--4--5-----|-5--5--7--5--4--5------5--5--7--9--10--12--9--7--5--4--|
B|-------------------5--|-------------------5-----------------------------------|
G|----------------------|-------------------------------------------------------|
D|----------------------|-------------------------------------------------------|
A|----------------------|-------------------------------------------------------|
E|----------------------|-------------------------------------------------------|



E|--5-5--7--5--4--5-----|-5--5--7--5--4--5------5--5--7--9--10--12--9--7--5--4--|
B|-------------------5--|-------------------5-----------------------------------|
G|----------------------|-------------------------------------------------------|
D|----------------------|-------------------------------------------------------|
A|----------------------|-------------------------------------------------------|
E|----------------------|-------------------------------------------------------|
20.726 exibições

Comentários 1

  • ifma ifma: Postado em 30/06/2012 11:50

    : oooooooooooooooooooo

Composição: Sabe quem é o compositor? Envie pra gente. Contribuição: Europeu Correções: fender14 e mais 1 »
Exibir acordes »
publicidade
fechar