Tom: C
		

|-------------------17h19h20~\--|-14----14--14----14-14----14-14-14---------|
|----------17h19h20-------------|-17bf------17bf-----17bf-----------17bf----|
|-16h17h19----------------------|-------------------------------------------|
|-------------------------------|-------------------------------------------|
|-------------------------------|-------------------------------------------|
|-------------------------------|-------------------------------------------|




--------------|-------14---------------------------------------------------|
-17bf--17bf~--|-14-------17p14-------14----14------------------------------|
--------------|-16bf-----------16bf-----16----17p16p14----16~--------------|
--------------|----------------------------------------16------------------|
--------------|------------------------------------------------------------|
--------------|------------------------------------------------------------|




|---------------------------------------------------------------14---------|
|-/9-12-9-10h12-14-10-12-14-15-12-14-15-17-14-15-17/19-15-17-19------------|
|--------------------------------------------------------------------------|
|--------------------------------------------------------------------------|
|--------------------------------------------------------------------------|
|--------------------------------------------------------------------------|




|------14----------------------|---------14------------14--------------------|
|-17bf------15bf~--------------|------14----17p14---------17-14------14------|
|-----------14bf~--17p16-14h16-|-16bf-------------16bf----------16bf----16bf-|
|------------------------------|---------------------------------------------|
|------------------------------|---------------------------------------------|
|------------------------------|---------------------------------------------|


                                     1/2   1 1/2

---------------------|------17-19-21-21b---21b----|-21b~--------17bf-------|
-14------------------|--/21-----------------------|------------------------|
----17p16p14----16~--|----------------------------|------------------------|
-------------16------|----------------------------|------------------------|
---------------------|----------------------------|------------------------|
---------------------|----------------------------|------------------------|




-p16p14------------|-------------------------------------------------------|
--------17-16-15~--|-0-----------------------------------------------------|
-------------------|---6-7p6---6---6-9p7p6-6---6-7p6---6---6-7p6-----------|
-------------------|---------9---9-----------9-------9---9-------9---------|
-------------------|-------------------------------------------------------|
-------------------|-------------------------------------------------------|




|-----------------------------------------9----10p9-|----9------------------|
|-------------9---7-9p7---10-7-9-10-10-12---12------|-12---12-10-9----9-----|
|-6---6-7p6-----9-------9---------------------------|--------------11---11--|
|---9-------9---------------------------------------|-----------------------|
|---------------------------------------------------|-----------------------|
|---------------------------------------------------|-----------------------|




------------------------9-12-10-9------11-12|p11----11-12p11----10-12p10----|
--------------9-9-10-12-----------9---------|----14----------14----------14-|
--10h11-10h11-----------------------11------|-------------------------------|
--------------------------------------------|-------------------------------|
--------------------------------------------|-------------------------------|
--------------------------------------------|-------------------------------|




-10h12p10-----10-------------|
----------114----12-14p12-10-|
-----------------------------|  fade out
-----------------------------|
-----------------------------|
-----------------------------|


==============================================
h = hammeron
p = pulloff
/\ = slide
x = ghost note
t = tap
(right hand)
~ = vibrato                     * = picked harmonic
bf = bend full                  tr = trill
rb = release bend               p.s. = pick scrape
dive = dive with bar            b = bend / step written over note
% = repeat bar                  + = natural harmonic
================================================
623 exibições

Comentários 0

Consegui tocarAinda não conseguiram tocar essa música. Seja o primeiro!
    Não consegui tocar
    Exibir acordes »
    publicidade
    fechar