Machine Gun Man

Zakk Wylde

 Zakk Wylde
Tom: E
		
Transcribed by: Wylde Brew




|--------------------------------------------------------------------
|------------------12------------------------------------------------
|-----------9-11/13--13\11-------------------------------------------
|------9h11-------------------7--7---------------7--7-------------7-7
|-9h11-0----------------------9--7------7h9p7----9--7------7h9p7--9-9
|-0------------------------10----9--7h9-------10----9--7h9-----------

   Intro:                                                                     


---------0---|-----------------------------12------------------------
----------0--|------------------12-----------12----------12/14\12--10
-0h1-0h1---1-|----------9-11/13----13\11-9------11b-9----11/13\11--9-
-2-----------|-----9h11-------------------------------11-------------
-2-----------|9h11-0-------------------------------------------------
-0-----------|0------------------------------------------------------

                                                                              


----------------------------------------------||-------------------
-9h10--12-------------------------------------||-------------------
-----------11b-9------9------9---9-----9------||------------9-11/13
-----------------9h11---9h11-----9h11--9------||-------9h11--------
------------------------------------------9h11||-9h11--0-----------
------------------------------------------0---||-0-----------------

                                        Verse: Tell me what's a yo- 


------------------------------------------------------------------
------------9-----------------------------------------------------
--11---11---9------------7-----------------------7----------------
-------------------------7---7-------------------7---7------------
-----------------------9-----7-----------------9-9---7------------
--------------------10-------9------7h9----10--------9------------

ung man mama what's he got to live for? Tossed in the shuffle child   


--------------------0-----|----------------------------------------
----------------------0---|----------------------------9-----------
-----------0h1--0h1-----1-|------------9-11/13-11---11-9-------7---
-7/8--7----2--------------|-------9h11-------------------------7--7
-9/10-9----2--------------|-9h11--0--------------------------9----7
-----------0--------------|-0-----------------------------10------9

 of everyday war.         Searching for some trouble    Lord, which  


-------------------------------------------------------------------
-------------------------------------------------------------------
------------------------------7------------------------------------
------------------------------7---7-----------------------7/8--7---
---------------------------9--9---7-----------------------9/10-9---
-----------7h9----------10--------9--------------------------------

I'm sure he will find. Spend your whole life fightin'son, meet your       


----------||-------------------------------------------------------
----------||-------------------------------------------------------
------0h1-||------2-----2----2-------------2-----------------2-----
------2---||------2-----2----2-------------2-----------------2-----
------2---||------0-----0----0-------------0-----------------0-----
------0---||-----------------------4----4------4---3----3-------3--

dying time. Chorus: It's a shame, it's a shame Lord.That the trigger    


------------------|-----------------------------------------------
------------------|-----------------------------------------------
-------------2----|--2-----2----2-------------2--------4-------4--
-------------2----|--2-----2----2-------------2--------4---2/4----
-------------0----|--0-----0----0-------------0--------2----------
---2----2-------2-|------------------4----4------4----------------

be his only friend.  It's a shame, it's a shame Lord. But it ain't         


-------------------------------------|-----------------------------
-------------------------------------|----------2----2h3p2---------
------4-------2---2----2-------------|----------2----2h4p2---------
--2/4---------2---2------------------|-2--------2------------2-----
--------------0---0------------------|-2--------0------------2-----
-------------------------------------|-0--2-4----------------0-2-4-

never gonna end no  A.H. that's right He's a pocket full of hate he  


--------------------|---------------------------------------------
--------2-----------|---------------------------------------------
--------2--------2--|--------------4------4----7-----2------------
--------2-----------|--2-----------4--2/4------7-----2------------
--------0-----------|--2-----------2-----------5-----0------------
--------------------|--0---2-4-----------------------------3------

don't give a damn A.H  What fait awaits  the machine gun man. Well  


-------------------------------------------------------------------
--------------2------------------------2-------------------------4-
--------------0------------------------0----------------4------4-4-
--------------2------------------------2----------------4--2/4-----
--------------0------------------------0--x\-----2------2----------
---0---2---4--------------0---2---4--------------0-----------------

 he ain't got no future and he ain't got no plans. What fait awaits       


----------------------------------------------------||-------------
-------------------------------------2------/-------||-------------
------7------2-----------------------0----------\---||-------------
------7------2-----------------2-----2--------------||-------9h11--
------5------0-----------------2-----0--------------||--9h11-0-----
-------------------------------0--------------------||--0----------

 the machine gun man.  The machine gun man-----    slip slide                 


-----------------12--9----9-----------------------------------------
-------12--------------12---12-9-12-9----9-10p9---9----------------9
9-11/13--13\11-9----------------------12--------11b-9---------9-11--
------------------------------------------------------11-9-11-------
--------------------------------------------------------------------
--------------------------------------------------------------------

                                                                              


----------------------12----12---------||------------------------||
-9h10--12-------12/14----14----12--/12-||------------------------||
----------12b-9--------------------/13-||------------------------||
---------------------------------------||------------------------||
---------------------------------------||------------------------||
---------------------------------------||------------------------||

                                              Repeat: Verse / Chorus          


-------------------------------------------------------------------
------------------------------4------------------------------------
----------4---4--4---4------4-4-----------2------------------------
----------4---4--4---4--2/4---------------2-----------------2------
----------2---2--0h2-2--------------------0-----------------2------
--------------------------------------------------3b--------0------

 Bridge:  He keeps on shootin' ah mama like any old fool would do  

Comentários 3

  • sutukomen sutukomen: Postado em 28/10/2014 21:19

    Ta uns 90% certo acho. Soh treinar bastante q vc consegue! : D

  • cadaver cadaver: Postado em 07/03/2014 23:38

    tá certo essa cifra?

  • supersliver supersliver: Postado em 15/05/2011 21:55

    po coloca uma video aula essa musica e foda mais e meio dificil aprender sozinho

Composição: Sabe quem é o compositor? Envie pra gente. Contribuição: Deivid
Exibir acordes »
publicidade
fechar