Tom: F#
		
(intro) F# B Ebm C# B


E|-1h2-2-2-4-6-4-2-1-2--2-2-2-4-6-4-2-1-2--5h6-5-6-7h9-7-6-7-6-2--2-|
B|------------------------------------------------------------------|
G|------------------------------------------------------------------|
D|------------------------------------------------------------------|
A|------------------------------------------------------------------|
E|------------------------------------------------------------------|


F#        C#/F      Ebm              B
  Tá tudo calmo, aparentemente tudo normal
F#        C#/F       Ebm        B           F#
  Mas se você pudesse ver ou sentir meu coração
    C#/F       B        F#
Saberia dessa fria solidão
    C#/F       B        F#
Saberia dessa fria solidão

Bbm Ebm   Bbm          Ebm
 O sol, você levou meu sol
  B           F#        C#
Virou inverno toda estação
Bbm Ebm   Bbm          Ebm
 O sol, você levou meu sol
  C#            B          C#
Fiquei vagando nessa escuridão
         B          C#               B         C#
Perdido nessa escuridão, no escuro dessa escuridão

(refrão)
B            F#            C# B      F#           C#   Ebm
  Eu só me aqueço no teu fogo, a tua luz é meu clarão
                    B         F#/A#        B
Sem você, eu sou metade, perdi minha identidade
      F#         C#   B        F#
Todo dia é imperfeito, é só saudade

(solo) F# B Ebm C# B Ebm C#/F B


E|-1h2-2-2-4-6-4-2-1-2--2-2-2-4-6-4-2-1-2--5h6-5-6-7h9-7-6-7-6-2--2-|
B|------------------------------------------------------------------|
G|------------------------------------------------------------------|
D|------------------------------------------------------------------|
A|------------------------------------------------------------------|
E|------------------------------------------------------------------|



E|-1h2-1-------------------------2-2--|
B|-------4-2-4-2-2-2h4-2h4--2-4-------|
G|------------------------------------|
D|------------------------------------|
A|------------------------------------|
E|------------------------------------|


Bbm Ebm   Bbm          Ebm
 O sol, você levou meu sol
  B           F#        C#
Virou inverno toda estação
Bbm Ebm    Bbm          Ebm
 O sol, você levou meu sol
  C#            B          C#
Fiquei vagando nessa escuridão
         B          C#               B         C#
Perdido nessa escuridão, no escuro dessa escuridão

(refrão 2x)
B            F#            C# B      F#          C#   Ebm
  Eu só me aqueço no teu fogo, a tua luz é meu clarão
                    B         F#/A#        B
Sem você, eu sou metade, perdi minha identidade
      F#         C#   B        F#
Todo dia é imperfeito, é só saudade

(final)
B/F#       F#  B/F#       F#
  (É só saudade), é só saudade
B/F#       F#  B/F#       F#
  (É só saudade), é só saudade
16.273 exibições

Comentários 0

Composição: Sabe quem é o compositor? Envie pra gente. Contribuição: Robleto Lafaiety Correções: tiago_hcs , eltonribeiro e mais 3 »
Consegui tocarAinda não conseguiram tocar essa música. Seja o primeiro!
    Não consegui tocar
    Exibir acordes »
    publicidade
    fechar