Você É a Dona do Meu Coração

Zé Henrique E Gabriel

 Zé Henrique E Gabriel
Tom: C(acordes na forma do tom G)
Capotraste na 5ª casa		
Itrodução:O Violão Dedilha G G9 G4 G (2x)
(obss:usa-se um capotraste no 5º traste e faz o desenho de D D9 D4 D)      

Ai o solo de violão é duetado:

     Em                   D    C                    D
E|----3-3-3-3----5----7----5----3-3-3-3----5----7----55--|
B|----5-5-5-5----7----8----7----5-5-5-5----7----8----77--|
G|-------------------------------------------------------|
D|-------------------------------------------------------|
A|-------------------------------------------------------|
E|-------------------------------------------------------|


Parte do Baixo:
(obss:entra na segunda vez que dedilha G G9 G4 G)

                              Em      D       C       D
E|------------------------------------------------------------|
B|------------------------------------------------------------|
G|---12---11--------------------------------------------------|
D|--------------14---12---------------------------------------|
A|-----------------------------7-77----5-55----3-33----5-55---|
E|------------------------------------------------------------|


                G 
Olhe nos meus olhos
            Em                Am C               D
Tanto sentimento, tanto que sufoca, e dói aqui dentro
                G                Em
Juro eu não pensava, que fosse ficar tão forte assim
             Am  C              D         
E foi só uma noite e marcou de mais pra mim

C                                  G  
É que no meu corpo ainda tem seu cheiro
                            Am
E esse desejo que me toma inteiro
            D              G  G7
Eu queria tanto ter você aqui
C                            G
Beijar sua boca e sentir de novo
                                Am
O sabor mais doce desse amor gostoso
C            D       C             G  D  
Que só com você, só com você, eu senti.

G                                       D/F#
Olha pra mim você vai ver que todo meu amor é por você
             C         Am                 D 
E nada vai mudar a direção dessa louca paixão.
G                                       D/F#
Olha pra mim você vai ver que todo meu amor é por você
             C         Am                 D            G
E nada vai mudar a direção você já é a dona do meu coração.

Introdução:(obss: igual a do começo)

C                                  G  
É que no meu corpo ainda tem seu cheiro
                            Am
E esse desejo que me toma inteiro
            D              G  G7
Eu queria tanto ter você aqui
C                            G
Beijar sua boca e sentir de novo
                                Am
O sabor mais doce desse amor gostoso
C            D       C             G  D  
Que só com você, só com você, eu senti.

G                                       D/F#
Olha pra mim você vai ver que todo meu amor é por você
             C         Am                 D 
E nada vai mudar a direção dessa louca paixão.
G                                       D/F#
Olha pra mim você vai ver que todo meu amor é por você
             C         Am                 D            G  Em
E nada vai mudar a direção você já é a dona do meu coração.

C            D               G  Em
Você já é a dona do meu coração
C            D               Em D C D G (obss: Faz o solo de violão duetado igual o da introdução)
Você já é a dona do meu coração
109.452 exibições

Comentários 0

Composição: Sabe quem é o compositor? Envie pra gente. Contribuição: tavinhodm Correções: Vaguinho e mais 2 »
Exibir acordes »
publicidade
fechar