Tom: C
		
Intro: C G Dm F


E|--------------0---1--------------------0---1------------|
B|-1-1-1-1-1--3---3---5-3-1-1-1-1-1-1--3---3---5-3-1------|
G|--0-0-0-0-0----------------0-0-0-0-0--------------------|
D|--------------------------------------------------------|
A|--------------------------------------------------------|
E|--------------------------------------------------------|



       C        G            Dm          F                  C
E|----------------------------------------------5-6-7--8---------------------|
B|------------5----5p6-----------5p6-----------------------------------------|
G|-5--5--5--7---7------7-5-7-5-------7-55/3/55-5-5--7-7----------------------|
D|--55-55-5--------------------7---------------------------------------------|
A|---------------------------------------------------------------------------|
E|---------------------------------------------------------------------------|


C                              G                      Dm
À noite bombando ela chega arrasando, não vai prestar
                           F                         C
Eu chamei meu amigo e disse pra ele, essa que eu vou pegar
                                      G
Quando eu vi eu já tava puxando seu braço
                    F - G - Am
e tome, e tome, amasso.
      B-C-D
Meu Deus do céu!

Refrão 2x:
C
Nossa! Eu acho ela top
G
Nossa! Eu acho ela boa demais
Dm
Tá doida, é a mais gostosa
F
Turbinada na frente e atrás

C
Ahhhh...
              G
Se eu pegar você, e hum!
             Dm
Vai me prometer o hum hum!
                 F
Que vai ser só minha.
C                G
Mas eu vou te dizer hum hum!
             Dm
Não quero saber de hum!
            F
Chega de gracinha. (2x)
Texto Colunas
Alterar tom ½ tom ½ tom
afinação acordes na letra esconder tabs mais »
192.196 exibições

Comentários (35)

  • Filipe Filipe: Postado em 16/04/2014 - 19:49

    Solo da cifra esta errado

  • renanassis2 renanassis2: Postado em 23/07/2013 19:10

    B|6-5------------------6-5|
    G|-----7-5---5-7-5------7-5---5-7-5----7-5----7-5|
    D|----------7------------------7----------7-------7| fim solo

  • renanassis2 renanassis2: Postado em 23/07/2013 19:08

    B|6-5------------------6-5|
    G|-----7-5---5-7-5------7-5---5-7-5----7-5----7-5|
    D|----------7------------------7----------7-------7| e fim

  • renanassis2 renanassis2: Postado em 21/07/2013 22:35

    B|----------------------------6-5-----------|
    G|---7--5-----7-5----------------7---------|
    D|--------7--------7-------------------------|

  • renanassis2 renanassis2: Postado em 21/07/2013 21:39

    o solinho ta errado ! to tentando aprender...ta dificil rs..

  • welisonlucas welisonlucas: Postado em 14/07/2013 22:20

    podia ter video aula, só acho u-u

  • vaneprimaz vaneprimaz: Postado em 16/02/2013 11:40

    Qual

  • Ana Ana: Postado em 05/02/2013 13:41

    Haaa seu pega vc e hum ... :) Adoro tome tome amasso ' .. *---*

  • Lucas Lucas: Postado em 01/02/2013 16:58

    Haha quem tirou o solo todo foi essa pessoa aki!

  • sxmarcosxs sxmarcosxs: Postado em 20/01/2013 13:54

    vlw eu queria msm saber qual ritmo é essa musica !

Exibindo 10 de 35 comentários Mostrar mais ver todos »
Composição: Danilo Costa
Esse não é o compositor? Avise-nos.
Contribuição: romulorav Correções: dgomes.oficial , Lucas e mais 2 »
  1. Tudo Que Você Quiser - Luan Santana Manteve-se 6.037 exibições
  2. Lepo Lepo - Psirico Manteve-se 4.468 exibições
  3. Mozão - Lucas Lucco Manteve-se 4.227 exibições
  4. Logo Eu - Jorge e Mateus Manteve-se 3.853 exibições
  5. Gaveta - Fernando e Sorocaba Manteve-se 3.342 exibições
  6. Pra Você - Onze:20 Manteve-se 3.171 exibições
  7. Só Os Loucos Sabem - Charlie Brown Jr. Manteve-se 3.013 exibições
  8. Tempo Perdido - Legião Urbana Manteve-se 2.451 exibições
  9. Fui Fiel - Gusttavo Lima Manteve-se 2.434 exibições
  10. Na Linha do Tempo - Victor e Leo Manteve-se 2.183 exibições
  1. Jorge e Mateus- Manteve-se 22.974 exibições
  2. Legião Urbana- Manteve-se 20.295 exibições
  3. Luan Santana- Manteve-se 17.553 exibições
  4. Charlie Brown Jr.- Manteve-se 17.249 exibições
  5. Fernandinho- Manteve-se 14.873 exibições
  6. Thalles Roberto- Manteve-se 11.307 exibições
  7. Católicas- Manteve-se 10.786 exibições
  8. Victor e Leo- Manteve-se 10.519 exibições
  9. Gusttavo Lima- Manteve-se 10.295 exibições
  10. Aline Barros- Manteve-se 10.226 exibições
Exibir acordes »

Cifras e tabs

Fórum Cifra Club

Aprenda

Cifra Club News

Mais Serviços Cifra Club ID

Studio Sol

©1996 - 2014 Cifra Club · o primeiro, maior e mais acessado do Brasil · 329 mil músicas · 5.9 milhões pessoas cadastradas

publicidade
fechar