Tom: C
		
Intro: C G Dm F


E|--------------0---1-0---------------------0---1-0-----------|
B|-1-1-1-1-1--3---3-----3-1-1--1-1-1-1-1--3---3-----3-1-------|
G|--0-0-0-0---------------------0-0-0-0-----------------------|
D|------------------------------------------------------------|
A|------------------------------------------------------------|
E|------------------------------------------------------------|



        C        G            Dm          F                  C
E|----------------------------------------------------------8-----------------|
B|--------------5----5p6------------5p6----------6------8---------------------|
G|-5--5--5--5/7---7------7-5-7-5--------7-55---5----3/7---7-------------------|
D|--55-55------------------------7-----------7--------------------------------|
A|----------------------------------------------------------------------------|
E|----------------------------------------------------------------------------|


C                              G                      Dm
À noite bombando ela chega arrasando, não vai prestar
                           F                         C
Eu chamei meu amigo e disse pra ele, essa que eu vou pegar
                                      G
Quando eu vi eu já tava puxando seu braço
                    F - G - Am
e tome, e tome, amasso.
      B-C-D
Meu Deus do céu!

Refrão 2x:
C
Nossa! Eu acho ela top
G
Nossa! Eu acho ela boa demais
Dm
Tá doida, é a mais gostosa
F
Turbinada na frente e atrás

C
Ahhhh...
              G
Se eu pegar você, e hum!
             Dm
Vai me prometer o hum hum!
                 F
Que vai ser só minha.
C                G
Mas eu vou te dizer hum hum!
             Dm
Não quero saber de hum!
            F
Chega de gracinha. (2x)
199.981 exibições

Comentários 35

  • Filipe Filipe: Postado em 16/04/2014 19:50

    Solo da cifra esta errado

  • renanassis2 renanassis2: Postado em 23/07/2013 19:10

    B|6-5------------------6-5|
    G|-----7-5---5-7-5------7-5---5-7-5----7-5----7-5|
    D|----------7------------------7----------7-------7| fim solo

  • renanassis2 renanassis2: Postado em 23/07/2013 19:08

    B|6-5------------------6-5|
    G|-----7-5---5-7-5------7-5---5-7-5----7-5----7-5|
    D|----------7------------------7----------7-------7| e fim

  • renanassis2 renanassis2: Postado em 21/07/2013 22:35

    B|----------------------------6-5-----------|
    G|---7--5-----7-5----------------7---------|
    D|--------7--------7-------------------------|

  • renanassis2 renanassis2: Postado em 21/07/2013 21:39

    o solinho ta errado ! to tentando aprender...ta dificil rs..

  • welisonlucas welisonlucas: Postado em 14/07/2013 22:20

    podia ter video aula, só acho u-u

  • vaneprimaz vaneprimaz: Postado em 16/02/2013 11:40

    Qual

  • Ana Ana: Postado em 05/02/2013 13:41

    Haaa seu pega vc e hum ... :) Adoro tome tome amasso ' .. *---*

  • Lucas Lucas: Postado em 01/02/2013 16:58

    Haha quem tirou o solo todo foi essa pessoa aki!

  • sxmarcosxs sxmarcosxs: Postado em 20/01/2013 13:54

    vlw eu queria msm saber qual ritmo é essa musica !

Exibindo 10 de 35 comentários Mostrar mais ver todos »
Composição: Danilo Costa
Esse não é o compositor? Avise-nos.
Contribuição: romulorav Correções: Filipe , Kiske e mais 3 »
Exibir acordes »
publicidade
fechar