Zeca Baleiro

Flor Da Pele

270.132 exibições
Tom: C
Intro: Am7(9)  G  F  E7(4)  E7

Dedilhado Intro e Primeira Parte:

Parte 1


   Am7(9)
E|------------------------------------------|
B|---------0----------------0---------------|
G|-----5-------5--------5-------5-----------|
D|---5---5---5---5----5---5---5---5---------|
A|-0----------------0-----------------------|
E|------------------------------------------|


Parte 2


   G
E|------------------------------------------|
B|---------0----------------0---------------|
G|-----0-------0--------0-------0-----------|
D|---0---0---0---0----0---0---0---0---------|
A|------------------------------------------|
E|-3----------------3-----------------------|


Parte 3


   F
E|------------------------------------------|
B|---------1----------------1---------------|
G|-----2-------2--------2-------2-----------|
D|---3---3---3---3----3---3---3---3---------|
A|------------------------------------------|
E|-1----------------1-----------------------|


Parte 4


   E7(4)            E7
E|------------------------------------------|
B|---------0----------------0---------------|
G|-----2-------2--------1-------1-----------|
D|---0---0---0---0----0---0---0---0---------|
A|------------------------------------------|
E|-0----------------0-----------------------|


Primeira Parte:

Am7(9)
       Ando tão à flor da pele
              G
Que qualquer beijo de novela

Me faz chorar
F
  Ando tão à flor da pele
           E7(4)
Que teu olhar "flor na janela"
    E7
Me faz morrer


Am7(9)
       Ando tão à flor da pele
       G
Meu desejo se confunde

Com a vontade de não ser
F
  Ando tão à flor da pele
             E7(4)
Que a minha pele
                E7
Tem o fogo do juízo final

Am7(9)
       Ando tão à flor da pele
              G
Que qualquer beijo de novela

Me faz chorar
F
  Ando tão à flor da pele
           E7(4)
Que teu olhar "flor na janela"
    E7
Me faz morrer


Am7(9)
       Ando tão à flor da pele
       G
Meu desejo se confunde

Com a vontade de não ser
F
  Ando tão à flor da pele
             E7(4)
Que a minha pele
                E7
Tem o fogo do juízo final

Refrão:

    Dm7(9)
Um barco sem porto

Sem rumo, sem vela
   Am7(9)
Cavalo sem sela
    D#º
Um bicho solto

Um cão sem dono

Um menino, um bandido
    E7(4)
Às vezes me preservo
 E7
Noutras, suicido

Refrão:

Parte 1


   Dm7(9)
E|---------0----------------0---------------|
B|-----6-------6--------6-------6-----------|
G|---5---5---5---5----5---5---5---5---------|
D|-0----------------0-----------------------|
A|------------------------------------------|
E|------------------------------------------|


Parte 2


   Am7(9)
E|------------------------------------------|
B|---------0----------------0---------------|
G|-----5-------5--------5-------5-----------|
D|---5---5---5---5----5---5---5---5---------|
A|-0----------------0-----------------------|
E|------------------------------------------|

Parte 3


   D#º
E|------------------------------------------|
B|---------6----------------6---------------|
G|-----5-------5--------5-------5-----------|
D|---7---7---7---7----7---7---7---7---------|
A|-6----------------0-----------------------|
E|------------------------------------------|


Parte 4


   E7(4)            E7
E|------------------------------------------|
B|---------0----------------0---------------|
G|-----2-------2--------1-------1-----------|
D|---0---0---0---0----0---0---0---0---------|
A|------------------------------------------|
E|-0----------------0-----------------------|


Base solo: Am7(9)  G  F  E7(4)  E7

Solo:

Parte 1


E|-10-10-10-10-10-10-10-10-10--8-7-7h8-8-8-8~---------|
B|----------------------------------------------------|
G|----------------------------------------------------|
D|----------------------------------------------------|
A|----------------------------------------------------|
E|----------------------------------------------------|


Parte 2


E|-7-7-7----------------------------------------------|
B|-------10-8-10-10/12-12-12-12~----------------------|
G|----------------------------------------------------|
D|----------------------------------------------------|
A|----------------------------------------------------|
E|----------------------------------------------------|


Parte 3


E|----------------------------------------------------|
B|-10-10-10-8-8---------------------------------------|
G|--------------10-10-9-9-7-7-------------------------|
D|----------------------------10-10-9-7---------------|
A|----------------------------------------------------|
E|----------------------------------------------------|


Parte 4


E|----------------------------------------------------|
B|----------------------------------------------------|
G|----------------------------------------------------|
D|-7h9-9-9-9------------------------------------------|
A|-----------7----------------------------------------|
E|-------------7-0------------------------------------|


Primeira Parte:

Am7(9)
       Ando tão à flor da pele
              G
Que qualquer beijo de novela

Me faz chorar
F
  Ando tão à flor da pele
           E7(4)
Que teu olhar "flor na janela"
    E7
Me faz morrer


Am7(9)
       Ando tão à flor da pele
       G
Meu desejo se confunde

Com a vontade de não ser
F
  Ando tão à flor da pele
             E7(4)
Que a minha pele
                E7
Tem o fogo do juízo final

Refrão:

    Dm7(9)
Um barco sem porto

Sem rumo, sem vela
   Am7(9)
Cavalo sem sela
    D#º
Um bicho solto

Um cão sem dono

Um menino, um bandido
    E7(4)
Às vezes me preservo
 E7(4+)          E7  E7(13)
Noutras, suicido

Preparação Terceira Parte:

Parte 1


   E7(4)            E7(4+)
E|------------------------------------------|
B|---------0----------------0---------------|
G|-----2-------2--------3-------3-----------|
D|---0---0---0---0----0---0---0---0---------|
A|------------------------------------------|
E|-0----------------0-----------------------|


Parte 2


   E7               E7(13)
E|------------------------------------------|
B|---------0----------------0---------------|
G|-----4-------4--------5-------5-----------|
D|---0---0---0---0----0---0---0---0---------|
A|------------------------------------------|
E|-0----------------0-----------------------|


Terceira Parte:
 
     Am7(9)
Oh, sim
                 G
Eu estou tão cansado
             F
Mas não pra dizer

Que não acredito
     E7(4)       E7
Mais       em você

           Am7(9)
Eu não preciso
             G
De muito dinheiro

Graças a Deus
     F
Mas vou tomar
              E7(4)
Aquele velho navio
                E7
Aquele velho navio

Refrão Final:

    Dm7(9)
Um barco sem porto

Sem rumo, sem vela
   Am       G   F
Cavalo sem se__la
    D#º
Um bicho solto

Um cão sem dono

Um menino, um bandido
    E7(4)
Às vezes me preservo
 E7
Noutras, suicido
    Composição: Zeca BaleiroColaboração e revisão:
    • Leo Eymard
    • Rick

    Comentários 3

    140 .
    140 cancelar

    conseguiu tocar?

    • vitoroff
    • ivomars

    covers

    Grave um vídeo tocando Flor Da Pele e mande pra gente!

    Ex.: http://www.youtube.com/watch?v=0IvSvIwGdwk
    ver covers de outras músicas »
    0:00 / 0:00
    2 versões de violão dificuldade exibições contribuição e correção
    2 versões de guitarra dificuldade exibições contribuição e correção
    2 versões de cavaco dificuldade exibições contribuição e correção
    2 versões de teclado dificuldade exibições contribuição e correção
    play/pausefechar subir/descer velocidade
    6ª corda E5ª corda A4ª corda D3ª corda G2ª corda B1ª corda E
      acordes
      versão revisada Leo Eymard instrutor de violão
      publicidad
      fechar
      ok