Faz mais uma vez Comigo

Zezé Di Camargo e Luciano

 Zezé Di Camargo e Luciano
Tom: F
		
(intro 2x) F Am Gm C7 


E|------------------------------------------------------------------------------------|
B|-10~---------------10-8~--------------8---6~----------6-5~-------------------10--11-|
G|-10~--10-----------10-9~---9----------9---7~--7---------5~-----9--10--12------------|
D|-----10----10-------------10--10-------------8---8----------------------------------|
A|-----------12-----------------12-----------------10---------------------------------|
E|------------------------------------------------------------------------------------|



E|--13---------13--12-----------12--------------------------------20b(22)r20--18-20~----
B|----13--------------13-----------15-------15----15--17--18--20------------------------
G|--------14~------------14~----------15-------17---------------------------------------
D|---------------------------------------17~--------------------------------------------
A|--------------------------------------------------------------------------------------
E|--------------------------------------------------------------------------------------


E|-----------------------|
B|-20 b(22)r-20--18--20~-|
G|-----------------------|
D|-----------------------|
A|-----------------------|
E|-----------------------|

 F
  não paro de rolar na cama
      Bb
  já nem trabalho mais direito
     C7                                      F  C7
  Sozinho o coração reclama, dentro do meu peito
     F
  eu ando tão apaixonado
     Bb
  pagando todos os pecados
      C7                                       F       C7
  não ligo mais pros' meus amigos ,vivo tão calado

(refrão)
      F
faz mais uma vez comigo  uou, uou, uou
 Bb
só mais uma vez comigo
     C7
eu quero te encontrar de novo
                                  F
volta pro' meu corpo , perdi o juízo
 F
faz mais uma vez comigo  uou, uou, uou
Bb
só mais uma vez comigo
     C7
eu quero te encontrar de novo
                                        F         Bb  C7
volta pro' meu corpo   é disso que eu preciso

     F
  quase que bati o carro
       Bb
  passando no farol vermelho
       C7                                  F        C7
  olhando no retrovisor,  só vi você no espelho
     F
  tô abusando do cigarro
       Bb
  só fico por aí sofrendo
     C7                                         F        C7
  preciso te encontrar depressa    eu estou morrendo

(refrão)

(solo 2x) F Am Gm C7

      G
faz mais uma vez comigo  uou, uou, uou
 C
só mais uma vez comigo
     D7
eu quero te encontrar de novo
                                  G
volta pro' meu corpo , perdi o juízo
 G
faz mais uma vez comigo  uou, uou, uou
  C
só mais uma vez comigo
     D7
eu quero te encontrar de novo
                                            G         D7
volta pro' meu corpo   é disso que eu preciso  
129.258 exibições

Comentários 0

Composição: César Augusto
Esse não é o compositor? Avise-nos.
Contribuição: Marcelo freak Correções: pauloricardorsx e mais 1 »
Exibir acordes »
publicidade
fechar