Asa Morena

Zizi Possi

 Zizi Possi
Tom: G
		
Arranjo 1:

E|-5p3-----------
B|-----5---------
G|---------------
D|---------------
A|---------------
E|---------------


Arranjo 2:

   G  Am Bb° G/B
E|--------------
B|-3--1--2---3--
G|-0--2--0---0--
D|-0--2--2---0--
A|----0--1---2--
E|-3------------


Intro: C F/C Em/C Bb/C Ab/Eb Bb/C
       C F/C Em/C Bb/C Ab/Eb F/C

Refrão:
 C             (Arranjo 1)
Me faz pequena,
C
Asa morena
 C7+         G#°  F
Me alivia a dor,
        G#°          Am   F
Aliviando a dor que mata
            C/G  C   F
Me faz ser teu amor
 C             (Arranjo 1)
Me faz pequena,
C
Asa morena
 C7+         G#°  F
Me alivia a dor,
        G#°          Am   F
Aliviando a dor que mata
            C/G  C   F C F
Me faz ser teu amor

Verso 1:
 G                 G#°
Me toma no crescer
                    Am  G  D/F#
de um beijo muito louco,
                   G
me implodindo aos poucos
       G#°           Am
no universo a desvendar
        D/F#        (Arranjo 2)
a vastidão do teu amor.

Verso 2:
 G                 G#°
Me toma sem pensar
                 Am    G  D/F#
num gesto muito forte
                   G            G#°
unindo o sul e norte do meu corpo,
        Am          D/F#
frágil corpo com a mais
         (Arranjo 2)
pura emoção.

(Refrão)

(Verso 1)

(Verso 2)

Solo:

E|-----------------7-8-9-10------------7-------
B|-8-8-10-10-11-11----------10-7-8~-10---10----
G|---------------------------------------------
D|---------------------------------------------
A|---------------------------------------------
E|---------------------------------------------



E|-10b12r10-9-10~-9-------------8/10-10~-8~----
B|------------------10-------10----------------
G|---------------------9-11~-------------------
D|---------------------------------------------
A|---------------------------------------------
E|---------------------------------------------



E|-7~-6-7-9-10b12r10-9-10~---------------------
B|-------------------------8/10~-9-10-12-------
G|---------------------------------------------
D|---------------------------------------------
A|---------------------------------------------
E|---------------------------------------------




E|-9b10r9-7-9~--10-10h12-10~-------------------
B|---------------------------------------------
G|---------------------------------------------
D|---------------------------------------------
A|---------------------------------------------
E|---------------------------------------------


Refrão 2:
 D
Me faz pequena,
D
Asa morena
 D7+         A#°  G
Me alivia a dor,
        A#°          Bm   G
Aliviando a dor que mata
            D/A  D   G
Me faz ser teu amor
 D
Me faz pequena,
D
Asa morena
 D7+         A#°  G
Me alivia a dor,
        A#°          Bm   G
Aliviando a dor que mata
            D/A  D   G D G
Me faz ser teu amor

Verso 3:
 A                 A#°
Me toma no crescer
                    Bm  A  E/G#
de um beijo muito louco,
                   A
me implodindo aos poucos
       A#°           Bm
no universo a desvendar
        E/G#        A  Bm  A/C#
a vastidão do teu amor.

Verso 4:
 A                 A#°
Me toma sem pensar
                 Bm    A  E/G#
num gesto muito forte
                   A            A#°
unindo o sul e norte do meu corpo,
        Bm          E/G#
frágil corpo com a mais
         A  Bm  A/C#
pura emoção.

(Refrão)

(Verso 1)

(Verso 2)

(Refrão)

Comentários 1

  • dedekinho dedekinho: Postado em 26/12/2011 11:03

    video aula por favor preciso mt dela!!!

Composição: Zé Caradípia
Esse não é o compositor? Avise-nos.
Contribuição: Petrus
Consegui tocarAinda não conseguiram tocar essa música. Seja o primeiro!
    Não consegui tocar
    Exibir acordes »
    publicidade
    fechar