Eats Away

28 Days

tom: A
Album: Stealing Chairs
Tuning: Standard
Tabbed By: Aaron Szczotkewycz  

There is a bass intro, and then the guitar starts. 

E|------------------------------------------------------|
B|------------------------------------------------------|
G|------------------------------------------------------|
D|---444-44-7--7----------------------------------------|
A|---444-44-7--5--x4-------4444444477777777-x1----------|
E|---222-22-5-------------------------------------------|

E|------------------------------------------------------|
B|------------------------------------------------------|
G|------------------------------------------------------|
D|---444-44-7--7----------------------------------------|
A|---444-44-7--5--x4-------4444444477777777-x1----------|
E|---222-22-5-------------------------------------------|

E|--------------------------------------------------|    
B|--------------------------------------------------|          
G|--------------7-7-7-7-7-7-9-9-9-9-9-9-7-7-7-7-7-7-|        
D|-4-4-4-4-4-4--7-7-7-7-7-7-9-9-9-9-9-9-7-7-7-7-7-7-|      
A|-4-4-4-4-4-4--5-5-5-5-5-5-7-7-7-7-7-7-5-5-5-5-5-5-|         
E|-2-2-2-2-2-2--------------------------------------|        

E|--------------------------------------------------|    
B|--------------------------------------------------|          
G|--------------7-7-7-7-7-7-9-9-9-9-9-9-7-7-7-7-7-7-|        
D|-4-4-4-4-4-4--7-7-7-7-7-7-9-9-9-9-9-9-7-7-7-7-7-7-|      
A|-4-4-4-4-4-4--5-5-5-5-5-5-7-7-7-7-7-7-5-5-5-5-5-5-|         
E|-2-2-2-2-2-2--------------------------------------|        

Play the same chords four more times while a second guitar plays this
E|--------------------------------------------------|
B|--------------------------------------------------|
G|--------------------------------------------------|
D|-4-4-4-4-4-4-4-4-4-4-4-4-4-4-6-0------------------|
A|--------------------------------------------------|
E|--------------------------------------------------|

E|--------------------------------------------------|
B|--------------------------------------------------|
G|-----------------------------5-3-2-4--------------|
D|-4-4-4-4-4-4-4-4-4-4-4-4-4-4----------------------|
A|--------------------------------------------------|
E|--------------------------------------------------|
E|--------------------------------------------------|
B|--------------------------------------------------|
G|--------------------------------------------------|
D|-4-4-4-4-4-4-4-4-4-4-4-4-4-4-6-0------------------|
A|--------------------------------------------------|
E|--------------------------------------------------|

E|--------------------------------------------------|
B|--------------------------------------------------|
G|-----------------------------5-3-2-4--------------|
D|-4-4-4-4-4-4-4-4-4-4-4-4-4-4----------------------|
A|--------------------------------------------------|
E|--------------------------------------------------|

E|------------------------------------------------------|
B|------------------------------------------------------|
G|------------------------------------------------------|
D|---444-44-7--7----------------------------------------|
A|---444-44-7--5--x4-------4444444477777777-x1----------|
E|---222-22-5-------------------------------------------|

E|------------------------------------------------------|
B|------------------------------------------------------|
G|------------------------------------------------------|
D|---444-44-7--7----------------------------------------|
A|---444-44-7--5--x4-------4444444477777777-x1----------|
E|---222-22-5-------------------------------------------|

E|--------------------------------------------------|
B|--------------------------------------------------|
G|--------------------------------------------------|
D|-4-4-4-4-4-4-4-4-4-4-4-4-4-4-6-0------------------|
A|--------------------------------------------------|
E|--------------------------------------------------|

E|--------------------------------------------------|
B|--------------------------------------------------|
G|-----------------------------5-3-2-4--------------|
D|-4-4-4-4-4-4-4-4-4-4-4-4-4-4----------------------|
A|--------------------------------------------------|
E|--------------------------------------------------|

E|--------------------------------------------------|
B|--------------------------------------------------|
G|--------------------------------------------------|
D|-4-4-4-4-4-4-4-4-4-4-4-4-4-4-6-0------------------|
A|--------------------------------------------------|
E|--------------------------------------------------|

E|--------------------------------------------------|
B|--------------------------------------------------|
G|-----------------------------5-3-2-4--------------|
D|-4-4-4-4-4-4-4-4-4-4-4-4-4-4----------------------|
A|--------------------------------------------------|
E|--------------------------------------------------|

E|--------------------------------------------------|    
B|--------------------------------------------------|          
G|--------------7-7-7-7-7-7-9-9-9-9-9-9-7-7-7-7-7-7-|        
D|-4-4-4-4-4-4--7-7-7-7-7-7-9-9-9-9-9-9-7-7-7-7-7-7-|      
A|-4-4-4-4-4-4--5-5-5-5-5-5-7-7-7-7-7-7-5-5-5-5-5-5-|         
E|-2-2-2-2-2-2--------------------------------------|        

E|--------------------------------------------------|    
B|--------------------------------------------------|          
G|--------------7-7-7-7-7-7-9-9-9-9-9-9-7-7-7-7-7-7-|        
D|-4-4-4-4-4-4--7-7-7-7-7-7-9-9-9-9-9-9-7-7-7-7-7-7-|      
A|-4-4-4-4-4-4--5-5-5-5-5-5-7-7-7-7-7-7-5-5-5-5-5-5-|         
E|-2-2-2-2-2-2--------------------------------------|        

E|--------------------------------------------------|
B|--------------------------------------------------|
G|--------------------------------------------------|
D|-4-4-4-4-4-4-4-4-4-4-4-4-4-4-6-0------------------|
A|--------------------------------------------------|
E|--------------------------------------------------|

E|--------------------------------------------------|
B|--------------------------------------------------|
G|-----------------------------5-3-2-4--------------|
D|-4-4-4-4-4-4-4-4-4-4-4-4-4-4----------------------|
A|--------------------------------------------------|
E|--------------------------------------------------|

E|--------------------------------------------------|
B|--------------------------------------------------|
G|--------------------------------------------------|
D|-4-4-4-4-4-4-4-4-4-4-4-4-4-4-6-0------------------|
A|--------------------------------------------------|
E|--------------------------------------------------|

E|--------------------------------------------------|
B|--------------------------------------------------|
G|-----------------------------5-3-2-4--------------|
D|-4-4-4-4-4-4-4-4-4-4-4-4-4-4----------------------|
A|--------------------------------------------------|
E|--------------------------------------------------|

E|------------------------------------------------------|
B|------------------------------------------------------|
G|------------------------------------------------------|
D|---444-44-7--7-----let last notes ring----------------|
A|---444-44-7--5--x4------------------------------------|
E|---222-22-5-------------------------------------------|

That's it, email me with any corrections or comments at *
Página 1 / 1

Letras e título
Acordes e artista

resetar configurações
OK