Cifra Club

Só Divirto Hienas (O Palhaço)

2ois

Cifra: Principal (violão e guitarra)
tom: Bb
(intro 2x) Gm F Bb F Gm/Eb

E|------3-----------3---------3---------3--------3--------3-------2-------------
B|-------3---------3-3-------3-3-------3-3------3--3-----3-3-----3-3------------
G|----0---0------0----0----0----0----0----0----0----0---0---0---2---2-----------
D|--------------------------------------------1--------1------0--------0--------
A|------------0----------1---------3------------------------------------3-1-0---
E|--3-------------------------------------------------------------------------3-

Desde quando eu, me entendo por gente
Eu sou do circo, mas ninguém entende
Será que uso muita maquiagem?
(Eu sou do circo, mas ninguém entende)

E|----3----3-----3-----3-----2----------2-----
B|----3----3-----3-----3-----3----------3-----
G|----0----0-----0-----0-----2----------2-----
D|--------------------1-----0----------3------
A|--------0-----1-----------------------------  (2x)
E|--3-----------------------------------------

Aaah Debaixo da minha tenda
Ando na corda bamba

E|-----3-----3-----3-----3------3-----2---
B|------3-----3-----3-----3------3-----3--
G|---3-----3-----3-----3------3-----2-----
D|--5-----4-----3-----2------1-----0------
A|----------------------------------------
E|----------------------------------------

Antes do show, eu faço as piadas e ouço alguém dizer:
"Olha aquela cara sem graça"

Gm                   Eb      Cm
Tudo me disconcentra, me faz brincar no fogo
Gm
Não consigo ir embora
Eb                F F# G
Embora melhor fosse
Gm         Bb                 Eb            Cm F F# G
Eu sou o palhaço e sinto que sou, mal compreendido
Gm      Bb         Eb            Cm F F# G
Eu poderia até comprar, o seu sorriso
Gm          Bb          Eb
Thuthuthurururu O seu sorriso
              Cm        F F# G
Thuthuthururururu O seu sorriso papapapa

E|------3-----------3---------3---------3--------3--------3-------2--------------
B|-------3---------3-3-------3-3-------3-3------3--3-----3-3-----3-3-------------
G|----0---0------0----0----0----0----0----0----0----0---0---0---2---2------------
D|--------------------------------------------1--------1------0--------0---------   (2x)
A|------------0----------1---------3------------------------------------3-1-0----
E|--3-------------------------------------------------------------------------3--

Já fiz piadas de , todos os tipos
Nenhuma delas fez, algum sentido
Na minha casa sou, o mais querido
Entre meu rato e, meu periquito

E|----3----3-----3-----3-----2----------2---
B|----3----3-----3-----3-----3----------3---
G|----0----0-----0-----0-----2----------2---
D|--------------------1-----0----------3----
A|--------0-----1--------------------------- (2x)
E|--3---------------------------------------

aaahh Só divirto hienas
ahhh Ando na corda bamba

E|-----3-----3-----3-----3------3-----2---
B|------3-----3-----3-----3------3-----3--
G|---3-----3-----3-----3------3-----2-----
D|--5-----4-----3-----2------1-----0------
A|----------------------------------------
E|----------------------------------------

(Sentado no chão, olhando a plateia, eu começo a sentir)
Uma sensação de derrota

Gm                   Eb      Cm
Tudo me disconcentra, me faz brincar no fogo
Gm
Não consigo ir embora
Eb
Embora melhor fosse

E|----3-----3-----3-----3------3-----3-----2-----------3-----3-----3-----3------3-----3-----2---
B|----3-----3-----3-----3------3-----3-----3-----------3-----3-----3-----3------3-----3-----3---
G|---3-----3-----3-----0------0-----0-----2-----------3-----3-----0------0-----0-----2----------
D|--5-----4-----3-----2------1-----1-----0-----3--4--5-----4-----3-----2------1-----1-----0-----

Ahh, se eu pudesse encontrar, um motivo pra melhor rir
Terminaria meu show, sem ter que no final fugir

Porque
Gm         Bb                 Eb            Cm F F# G
Eu sou o palhaço e sinto que sou, mal compreendido
Gm      Bb         Eb            Cm F F# G
Teoricamente eu sou o melhor dos piores
Gm         Bb                 Eb            Cm F F# G
Eu sou o palhaço e sinto que sou, mal compreendido
Gm      Bb         Eb            Cm F F# G
Eu poderia até comprar, o seu sorriso
Gm          Bb          Eb          Cm        F F# G
Thuthuthurururu O seu sorriso Thuthuthururururu
Gm          Bb          Eb          Cm        F F# G
Thuthuthurururu O seu sorriso Thuthuthururururu
00:00 / 00:00
Outros vídeos desta música
Repetir
Outros vídeos desta música
Compositor não encontrado.
Colaboração e revisão:
  • Pedro Locatelli
6.958 exibições
    • ½ Tom
    • A
    • Bb
    • B
    • C
    • Db
    • D
    • Eb
    • E
    • F
    • F#
    • G
    • Ab
  • Adicionar à lista

    0 comentários

    Ver todos os comentários

    Conseguiu tocar?

    1 Tocaram 2 Ainda não

    Grave um vídeo tocando Só Divirto Hienas (O Palhaço) e nos envie!

    Entre para oCifra Club PRO

    Tenha acesso a benefícios exclusivos no App e no Site

    • Chega de anúncios

    • Prioridade de compra em lançamentos

    • Mais recursos no app do Afinador

    • Atendimento Prioritário

    • Descontos nos produtos Cifra Club

    • Ajude a produzir mais conteúdo

    00:00 / 00:00

    Cifra Club Pro

    Aproveite o Cifra Club com benefícios exclusivos e sem anúncios
    Cifra Club Pro
    Aproveite o Cifra Club com benefícios exclusivos e sem anúncios
    OK