Cifra Club

Aprenda

Away from the sun

3 Doors Down

Cifra: Versão 2 (violão e guitarra)
Já pensou em usar uma coleção de roupas do Cifra Club? Responda as perguntas abaixo e nos ajude nessa missão! →
tom: C
Tom : F 

intro:

e|----------------------------------------- |
b|----1------1------1-----1---------------- |
G|-------2------2------2------4h5---------- |
D|----------------------------------5------ |
A|----------------------------------------- |
E|-1--------------------------------------- |

e|----------------------------------------- |
b|----1------1------1-----1---------------- |
G|-------2------2------2------4h5---7---9-- |
D|----------------------------------------- |
A|----------------------------------------- |
E|-1--------------------------------------- |

e|------------------------------------------|
b|---1---1---1---1--------------------------|
G|-----2---2---2----4h5---7-5-4---7-5-4-4h5-|
D|----------------------5-------5-----------|
A|------------------------------------------|
E|-1----------------------------------------|

(continue usando a intro)

It's down to this /
I've got to make my life make sense /
Can anyone tell what I've done /
I miss the life /
I miss the colours of the world /
Can anyone tell where I am / 



F               Am                C                 
Cause now again I've found myself so far down /
F                   Am             C
Away from the sun that shines into darkest place / 
F
I'm so far down 

   F           F        Am
D|-3-----------3--------7---------------------- |
A|-3----3------3--------7---------------------- |
E|-1h3-----3---1--------5---------------------- |

   away from the sun again/ 

(volte c/ a intro)

   Away from the sun again /

(continue c/ a intro, preste atenção p cair certo)

I'm over this /
I'm tired of livin' in the dark /
Can anyone see me down here /
The feeling's gone /
There's nothing left to lift me up /
Back into the world I know /

(refrão)

F             Am                C
And now again I've found myself so far down / 
F                  Am                      C
Away from the sun that shines into darkest place / 

I'm so far down 

   F           F        Am
D|-3-----------3--------7---------------------- |
A|-3----3------3--------7---------------------- |
E|-1h3-----3---1--------5---------------------- | 

    away from the sun / 

F                    Am              C
That shines to light the away for me to find my way 

     F         F        
D|-3-----------3-------- |
A|-3----3------3-------- |
E|-1h3-----3---1-------- | 

  back into the arms / 

F               Am
That care about the ones like me / 
C
I'm so far down 

   F           F        Am
D|-3-----------3--------7---------------------- |
A|-3----3------3--------7---------------------- |
E|-1h3-----3---1--------5---------------------- | 

   Away from the sun again /

      (F Am C )

    
e|---6--6/8---6---5------------ |
b|--------------------6-------- |

(volte c/ a intro)
 
It's down to this /
I've got to make my life make sense /
And now I can' tell what I've done /
And now again I've found myself so far down /
Away from the sun that shines to light the away for me / 

(refrão)

F               Am                C                 
Cause now again I've found myself so far down /
F                   Am             C
Away from the sun that shines into darkest place / 
F
I'm so far down 

   F           F        Am
D|-3-----------3--------7---------------------- |
A|-3----3------3--------7---------------------- |
E|-1h3-----3---1--------5---------------------- |

   away from the sun again/

F                    Am              C
That shines to light the away for me to find my way 

     F         F        
D|-3-----------3-------- |
A|-3----3------3-------- |
E|-1h3-----3---1-------- | 

  back into the arms / 

F               Am
That care about the ones like me / 
C
I'm so far down 

   F           F        Am
D|-3-----------3--------7---------------------- |
A|-3----3------3--------7---------------------- |
E|-1h3-----3---1--------5---------------------- | 

   Away from the sun again /

      ( F Am C )

Dica : No refrão toq o powerchord de Am nota por nota , vai fik bm lok.
Composição de Brad Arnold / C. DJ Smooth Henderson / Matt Roberts / Víctor M. Ruíz
29.323 exibições
    • ½ Tom
    • A
    • Bb
    • B
    • C
    • Db
    • D
    • Eb
    • E
    • F
    • F#
    • G
    • Ab
  • Adicionar à lista

    0 comentários

    Ver todos os comentários

    Conseguiu tocar?

    1 Tocaram 0 Ainda não

    Grave um vídeo tocando Away from the sun e nos envie!

    00:00 / 00:00
    Outros vídeos desta música
    Repetir Qualidade Automático
    Outros vídeos desta música
    00:00 / 00:00
    Automático

    Cifra Club Pro

    Aproveite o Cifra Club com benefícios exclusivos e sem anúncios
    Cifra Club Pro
    Aproveite o Cifra Club com benefícios exclusivos e sem anúncios
    OK