Cifra Club

Aprenda

By My Side

3 Doors Down

Cifra: Principal (violão e guitarra)
Já pensou em usar uma coleção de roupas do Cifra Club? Responda as perguntas abaixo e nos ajude nessa missão! →
tom: G
(intro e refrão)
---------------------------------------------------------
---------------------------------------------------------
---------------------------------------------------------
-5-5----------8----------5----------8---5----------------
-5-5-6p5h6p5--8-8p6p8h6--5-6p5h6p5--8-8------------------
-3-3----------6----------3----------6--------------------

-------------------------------------------------------
-------------------------------------------------------
-------------8--8--8--------------10--10--10-----------
-5--5--5---8--8--8--8--8--8--10--10--10----------------
-5--5--5---6--6--6--8--8--8---8---8---8----------------
-3--3--3--------------6--6--6--------------------------

------------------------------------------------------
------------------------------------------------------
------------------------------------------------------
-5-5-----------------------5-5------------------------
-5-5-2-5-6-7-6-5-3-2-3-0-0-5-5-2-5-6-7-6-5-3-2-3-0-4--
-3-3-----------------------3-3------------------------

------------------------------------------------------|
------------------------------------------------------|
--------------------------------------------5---5---5-|
-5---5---5---8---8---8---5---5---5---5---5---5--------|
-5---5---5---8---8---8---5---5---5---3---3---3--------|
-3---3---3---6---6---6---3---3---3--------------------|
Composição de Brad Arnold / Matt Roberts / Víctor M. Ruíz
Colaboração e revisão:
  • matheus
15.390 exibições
    • ½ Tom
    • A
    • Bb
    • B
    • C
    • Db
    • D
    • Eb
    • E
    • F
    • F#
    • G
    • Ab
  • Adicionar à lista

    0 comentários

    Ver todos os comentários

    Conseguiu tocar?

    0 Tocaram 0 Ainda não

    Grave um vídeo tocando By My Side e nos envie!

    00:00 / 00:00
    Outros vídeos desta música
    Repetir Qualidade Automático
    Outros vídeos desta música
    00:00 / 00:00
    Automático

    Cifra Club Pro

    Aproveite o Cifra Club com benefícios exclusivos e sem anúncios
    Cifra Club Pro
    Aproveite o Cifra Club com benefícios exclusivos e sem anúncios
    OK