Enviar cifraEntrar

Landing In London

3 Doors Down

Cifra: Principal
exibições 61.110
Tom: G

     Em
|--------------------------------------
|-------1-----0------------------------
|----------------------2h4--0----------
|---2----------------------------------
|--2-----------------------------------
|-0------------------------------------


     Em
|--------------------------------------
|-------1-----0------------------------
|--------------------2--2h4-0----------
|----2---------------------------------
|---2----------------------------------
|-0------------------------------------


     Em
|--------------------------------------
|-------1-----0------------------------
|----------------------2h4--0----------
|---2----------------------------------
|--2-----------------------------------
|-0------------------------------------


First Verse

I woke up today in London
As the plane was touching down


     Em                       G                       Am                       Em
|------------------------------------------------------------------------------------------
|--------------------------0--------------------0----1-------------------------------------
|-------0---------------0---------------------2---2-------------0-------0---------------0--
|----2----2----------0-------0--------------2---------------0h2-------2-------------0h2----
|---2-------------------------------2b--0---------------0h2---------2-----2----0h2---------
|-0---------0-----3-------------3---------------------------------0----------0-------------


And all I could think about was Monday
Maybe I'd be back around


     Em                       G                       Am                       Em
|------------------------------------------------------------------------------------------
|--------------------------0----------------------0----1-----------------------------------
|-------0---------------0-----------------------2---2-----------0-------0---------------0--
|----2----2----------0-------0--------------2---------------0h2-------2-------------0h2----
|---2-------------------------------2b--0---------------0h2---------2-----2----0h2---------
|-0---------0-----3-------------3---------------------------------0----------0-------------


If this keeps me way much longer
I don't know what I would do


     Em                       C                        D                      Em
|---------------------------------------------------2-----3--------------------------------
|--------------------------1-0----------------3--------------------------------------------
|-------0--------0-------0-----2------------2-----2-----2--------------0--------------0----
|-----2---2----2-------2---------0-----0-----------------------------2------------0h2------
|---2----------------3---------------0-----------------------------2-----2----0h2----------
|-0---------0----------------------------------------------------0----------0--------------


You've got to understand it's a hard life,
That I'm going through


     Em                       C                        D                      Em
|--------------------------------------------------2-----3----------------------------------
|--------------------------1-0---------------3---------------------------------------------
|-------0--------0-------0-----2-----------2-----2-----2---------------0--------------0----
|-----2---2----2-------2--------0-----0-------------------------------2------------0h2-----
|---2----------------3--------------0-------------------------------2-----2----0h2---------
|-0---------0----------------------------------------------------0----------0--------------


First Chorus

And when the night falls in around me
And I don't think I'll make it through


     Em                  C (strum)          Am (strum)         Em (strum)
|------------------------------------------------------------------------------------------
|---------------------1------------------1-------------------------------------------------
|-------0-------0-----0------------------2----------------0----------0--------------0------
|-----2---2---2-------2------------------2----------------2--------2-----------0h2---------
|---2-----------------3-----------------------------------2------2-----2---0h2-------------
|-0---------0---------------------------------------------0----0---------0-----------------


I'll use your light to guide the way
'Cause all I think about is you


     Em                  C (strum)          Am (strum)         Em (strum)
|----------------------------------------------------------------------------
|---------------------1------------------1-----------------------------------
|-------0-------0-----0------------------2----------------0------------------
|-----2---2---2-------2------------------2----------------2------------------
|---2-----------------3-----------------------------------2------------------
|-0---------0---------------------------------------------0------------------


     Em
|--------------------------------------
|-------1-----0------------------------
|---------------------2h4--0-----------
|---2----------------------------------
|--2-----------------------------------
|-0------------------------------------


     Em
|--------------------------------------
|-------1-----0------------------------
|-------------------2--2h4-0-----------
|----2---------------------------------
|---2----------------------------------
|-0------------------------------------


     Em
|--------------------------------------
|-------1-----0------------------------
|---------------------2h4--0-----------
|---2----------------------------------
|--2-----------------------------------
|-0------------------------------------


Second Verse

And L.A. is getting kind of crazy
And New York is getting kind of cold


     Em                       G                       Am                       Em
|-----------------------------------------------------------------------------------------
|--------------------------0--------------------0----1------------------------------------
|-------0---------------0---------------------2---2-------------0-------0---------------0-
|----2----2----------0-------0--------------2---------------0h2-------2-------------0h2---
|---2-------------------------------2b--0---------------0h2---------2-----2----0h2--------
|-0---------0-----3-------------3---------------------------------0----------0------------


I keep my head from getting lazy
I just can't wait to get back home


     Em                       G                       Am                       Em
|-----------------------------------------------------------------------------------------
|--------------------------0--------------------0----1------------------------------------
|-------0---------------0---------------------2---2-------------0-------0---------------0-
|----2----2----------0-------0--------------2---------------0h2-------2-------------0h2---
|---2-------------------------------2b--0---------------0h2---------2-----2----0h2--------
|-0---------0-----3-------------3---------------------------------0----------0------------


And all these days I spend away
I'll make up for this I swear

(Strum)
Em   C   Am   Em

I need your love to hold me up
When it's all to much to bear

(strum)
Em   C   D    Em

And when the night falls in around me
And I don't think I'll make it through

(strum)
Em   C   Am   Em

I'll use your light to guide the way
'Cause all I think about is you

(strum)
Em   C   D

Solo Intro
Em

Solo
Em   C   Am   Em
Em   C   D    Em



|-------------------------------------------------------------------|
|--------------------7h8/10--10/12------------------------10-10/12--|
|----------------7h9-----------------9-9-9/11-11-11/12-12-----------|
|---------5h7/9-----------------------------------------------------|
|-----5h7-----------------------------------------------------------|
|-------------------------------------------------------------------|


|-------------------------------/12-12-12-12--12-10-8-10-8-7-8-7-5-7-5-3---|
|-----12b-10-----12b-10--10h12------------------------------------------5--|
|--------------------------------------------------------------------------|
|--------------------------------------------------------------------------|
|--------------------------------------------------------------------------|
|--------------------------------------------------------------------------|


And all these days I spend away
I'll make up for this I swear

(Strum)
Em   C   Am   Em

I need your love to hold me up
When it's all to much to bear

(strum)
Em   C   D    Em

And when the night falls in around me
And I don't think I'll make it through

(strum)
Em   C   Am   Em

I'll use your light to guide the way

(strum)
Em   C   D

'Cause all I think about is you

Ending

     Em
|-------------------------------------
|------1-----0------------------------
|--------------------2h4--0-----------
|---2---------------------------------
|--2----------------------------------
|-0-----------------------------------


     Em
|--------------------------------------
|-------1-----0------------------------
|------------------2--2h4-0------------
|----2---------------------------------
|---2----------------------------------
|-0------------------------------------


     Em
|------------------------------------------------0--
|------1-----0-----------------------------------0--
|--------------------2h4--0--------------0-------0--
|---2----------------------------------2---2-----2--
|--2---------------------------------2-------2---2--
|-0--------------------------------0-------------0--
  • 1
  • 2
  • 3
  • 4
  • 5
  • 6
  • 7
  • 8
  • 9
  • 10
  • 11
  • 12
    Acordes para:

      0 comentários

        mostrar mais comentários

        Conseguiu tocar?

        10tocaram0ainda não

        Grave um vídeo tocando Landing In London e mande pra gente!

        00:00 / 00:00
        outros vídeos desta música
        repetirqualidadeautomática
        • automática
        Outro vídeos desta música
          00:00 / 00:00
          automática
          • automática
          Acordes para:violão e guitarra
          dificuldadeexibiçõescontribuições
          1 versão de Tab de baixoexibiçõescontribuições
          1 versão de Guitar Proformatodownloadscontribuição
          fecharplay/pause subir/descer velocidade
            acordes
            fechar
            OK
            Feedback