Cifra Club

Aprenda

The Road I'm On

3 Doors Down

Cifra: Principal (violão e guitarra)
tom: G
Intro: Em G Am C


--------------------------------0-------------------------------------0-------
-----------------1p0------------1-----------------------------1p0-----1-------
---------------------0-------2--0---------------------------------0---2-------
-----2-------0-------------2----2------------------2------0-----------2-------
---2-------2-------------0------3----3p2--0h2----2------2-------------0-------
-0-------3-------------------------------------0------3-----------------------
 Em       G        Am           C             Em      G           Am          

 

 Chorus:
 
------------------------------------------------------------------------------
------------------------------------------------------------------------------
----------------------------5-5-5---------------------------------------------
-2-2-2---5-5-5-----7-7-7----5-5-5---------------------------------------------
-2-2-2---5-5-5-----7-7-7----3-3-3---------------------------------------------
-0-0-0---3-3-3-----5-5-5------------------------------------------------------
  E5       G5        A5       C5




Solo:

E|---12(hold)------------------------------------12---------------|
B|----------------------------------------------------------------|
G|----------------12--14^r-14^r-14^r--14-12-----------------------|
D|-------------------------------------------14-------------------|
A|----------------------------------------------------------------|
E|----------------------------------------------------------------|

E|----------------------------------------------------------------|
B|----------------------------------------------------------------|
G|----------------------------------------------------------------|
D|------5h7--7^r-7-----7-5-----5----------------------------------|
A|--5h7---------------------7-----7-5-----------------------------|
E|-------------------------------------7-5-7-5-3--5-3-5-3-0-5-3-0-|

E|----------------------------------------------------------------|
B|----------------------12----------------------------------------|
G|----------------12h14-----12-14-12----------12------------------|
D|--------5--------------------------14---14-----14-12-14---------|
A|--5-5h7----7----------------------------------------------------|
E|----------------------------------------------------------------|

E|----------------------------------------------------------------|
B|----------------------------------------------------------------|
G|----------------------------------------------------------------|
D|------5h7-7^r--5---5--------------------------------------------|
A|--5h7------------7---7-5-7--------------------------------------|
E|----------------------------------------------------------------|
Composição de Brad Arnold / C. DJ Smooth Henderson / Matt Roberts / Víctor M. Ruíz
Colaboração e revisão:
  • karlos santos
  • Yuri Robert
7.701 exibições
    • ½ Tom
    • A
    • Bb
    • B
    • C
    • Db
    • D
    • Eb
    • E
    • F
    • F#
    • G
    • Ab
  • Adicionar à lista

    0 comentários

    Ver todos os comentários

    Conseguiu tocar?

    0 Tocaram 0 Ainda não

    Grave um vídeo tocando The Road I'm On e nos envie!

    00:00 / 00:00
    Outros vídeos desta música
    Repetir Qualidade Automático
    Outros vídeos desta música
    00:00 / 00:00
    Automático

    Cifra Club Pro

    Aproveite o Cifra Club com benefícios exclusivos e sem anúncios
    Cifra Club Pro
    Aproveite o Cifra Club com benefícios exclusivos e sem anúncios
    OK