Cifra Club

Aprenda

Your Arms Feel Like Home

3 Doors Down

Cifra: Principal (violão e guitarra)
Já pensou em usar uma coleção de roupas do Cifra Club? Responda as perguntas abaixo e nos ajude nessa missão! →
tom: C
I think i walked..

C                    G/B                  Am (2X)

E|-----------------|------------0-----|-----------------|
B|--------1--------|----------3---3---|--------1--------|
G|------0---0---0--|------0---------0-|------2---2------|(Repita essa parte 3x)
D|----2-------2----|----0-------------|----2-------2----|
A|--3--------------|--2-----2---------|--0-----------0--|
E|-----------------|------------------|-----------------|

Maybe you just...

F                   G                  Am

E|------------------|----------------|------------------------------------|
B|------------------|--------3-------|--------0h1---------------0---------|
G|--------2---------|------0---0-----|------2-----2---------2-----2-------|
D|------3---3-------|----0-------0---|----2---------2-----2---2-----2-----|
A|----3-------3-----|----------------|--0-----------------------------0---|
E|--1-----------1---|--3-------------|------------------------------------|

The First time...
F                   G                  Am

E|-----------------|----------------|-------------------------------------|
B|-----------------|--------3-------|--------0h1-------3h1-----1p0--------|
G|-------2---------|------0---0-----|------2-----2---------2-------2------|
D|-----3----3------|----0-------0---|----2---------2---------2-------2----|
A|---3--------3----|----------------|--0-------------0--------------------|
E|--1-----------1--|--3-------------|-------------------------------------|


Refrão:                                           (Sequencia: F C Am G ou Power Chord)

F              C                     Am        G
There's life inside of me that I can feel again

F              C                       Am                    G
It's the only think that takes me where i've never been

F              C                    Am            G
I don't care if i lost everything that i have know

F               C                    Am        G
It don't matter where i lay my head tonight your arms feel like hooooooooome.


(Obs: Na hora do "hooooooooome" você volta pro dedilhado do começo =)


Após o segundo Refrão entra uma parte com Backing-Vocal e a sequencia muda:(C Am G F ou Power Chord)
Depois do Pequeno trecho volta pro Refrão.
Composição de Brad Arnold
Colaboração e revisão:
  • ALESSON SANTANA
  • Vítor Lima
7.993 exibições
    • ½ Tom
    • A
    • Bb
    • B
    • C
    • Db
    • D
    • Eb
    • E
    • F
    • F#
    • G
    • Ab
  • Adicionar à lista

    0 comentários

    Ver todos os comentários

    Conseguiu tocar?

    2 Tocaram 0 Ainda não

    Grave um vídeo tocando Your Arms Feel Like Home e nos envie!

    00:00 / 00:00
    Outros vídeos desta música
    Repetir Qualidade Automático
    Outros vídeos desta música
    00:00 / 00:00
    Automático

    Cifra Club Pro

    Aproveite o Cifra Club com benefícios exclusivos e sem anúncios
    Cifra Club Pro
    Aproveite o Cifra Club com benefícios exclusivos e sem anúncios
    OK