Cifra Club

Aprenda

Closer To The Edge

Thirty Seconds To Mars

Cifra: Principal (violão e guitarra)
Tom: F#
         F#
I don't remember one moment, I tried to forget
   A#m
I lost myself, is it better not said
        D#m    C#      B
Now I'm closer to the edge

         F#
It was a thousand to one and a million to two
        A#m
Time to go down in flames and I'm taking you
D#m     C#      B
Closer to the edge

            F#          A#m
No, I'm not saying I'm sorry
    D#m             C#       B
One day maybe we'll meet again
            F#          A#m
No, I'm not saying I'm sorry
    D#m         C#           B
One day maybe we'll meet again
NO, NO, NO, NO!

( F#  A#m  D#m  C#  B )

         F#
Can you imagine a time when the truth ran free
    A#m
The birth of a sun the death of a dream
D#m     C#      B
Closer to the edge
F#                               A#m
This never ending story, paid for with pride and fate
D#m                        B
We all fall short of glory, LOST IN YOUR FATE

            F#          A#m
No, I'm not saying I'm sorry
    D#m            C#        B
One day maybe we'll meet again
            F#          A#m
No, I'm not saying I'm sorry
    D#m         C#           B
One day maybe we'll meet again
NO, NO, NO, NO!
    F#
E|----------------------------------------------------------|
B|--6-6-6-7-7-7-7---6-6-6-7-7-7-7--6-6-6-7-7-7-7--6-6-6-6---|
G|--6-6-6-6-6-6-6---6-6-6-6-6-6-6--6-6-6-6-6-6-6--6-6-6-6---|
D|--4-4-4-4-4-4-4---4-4-4-4-4-4-4--4-4-4-4-4-4-4--4-4-4-4---|
A|----------------------------------------------------------|
E|----------------------------------------------------------|

     B             C#
E|-------------------------------|
B|-------------------------------|
G|--4-4-4-4-4-4-4-6-6-6-6-6-6-6--|
D|--4-4-4-4-4-4-4-6-6-6-6-6-6-6--|
A|--2-2-2-2-2-2-2-4-4-4-4-4-4-4--|
E|-------------------------------|

    F#
No, no, no, no
I will never forget
F#
No, no
I will never regret
F#
No, no
   F#       B    C#
I will live my life
   F#
No, no, no, no
I will never forget
F#
No, no
I will never regret
F#
No, no
F#          B    C#
I will live my life
E|-------------------------------|
B|------5-7-----5-7--------------|
G|--6-7-----6-7------------------|
D|-------------------------------|
A|-------------------------------|
E|-------------------------------|

            F#          A#m
No, I'm not saying I'm sorry
    D#m            C#        B
One day maybe we'll meet again
            F#          A#m
No, I'm not saying I'm sorry
    D#m            C#        B
One day maybe we'll meet again, No, No

F#             A#m
Closer to the edge
D#m    C#        B
Closer to the edge
No, no, no, no
F#     C#        A#m
Closer to the edge
D#m            B
Closer to the edge
No, no, no, no

( F#  A#m )

D#m     C#      B
Closer to the edge
Composição de Jared Leto
Colaboração e revisão:
131.975 exibições
    • ½ Tom
    • A
    • Bb
    • B
    • C
    • Db
    • D
    • Eb
    • E
    • F
    • F#
    • G
    • Ab
  • Adicionar à lista

    0 comentários

    Mostrar mais comentários

    Conseguiu tocar?

    38 Tocaram 1 Ainda não

    Grave um vídeo tocando Closer To The Edge e mande pra gente!

    00:00 / 00:00
    outros vídeos desta música
    repetir qualidade Automático
    Outros vídeos desta música
    00:00 / 00:00
    Automático

    Cifra Club Pro

    Aproveite o Cifra Club com benefícios exclusivos e sem anúncios
    7 dias grátis
    Cifra Club Pro
    Aproveite o Cifra Club com benefícios exclusivos e sem anúncios
    7 dias grátis
    OK