5 Lb Bag

40 Below Summer

tom: E
Tabbed by 2Fisted
Tuning: Drop B

Intro(wah and dist., every 1st time through have low wah, 2nd have high)
-----------------------------|
-----------------------------|
-----------------------------|
-4~-00-00--4~-00-02-43-------|X5
-4~-00-00--4~-00-02-43-------|
-4~-00-00--4~-00-02-43-------|
6th time(before 2nd "4" powercord take off wah):
-----------------------------|
-----------------------------|
-----------------------------|
-4~-00-00--4~-00----0--------|
-4~-00-00--4~-00-00-0--------|
-4~-00-00--4~-00-00-0--------|
                 ..
Verse
-----------------------------|
-----------------------------|
-----------------------------|
-4~-00-00--4~-00-02-43-------|
-4~-00-00--4~-00-02-43-------|
-4~-00-00--4~-00-02-43-------|
Chorus
-------------------------------|
-------------------------------|
----------7~-------------------|
-0~-2~-0~-5~---0~-2~-----------|
-0~-2~-0~-5~---0~-2~-2-0-2-0-2-|
-0~-2~-0~-5~---0~-2~-2-0-2-0-2-|
                     . . . . .
Interlude 1
-----------------------------|
-----------------------------|
-----------------------------|
-----------------------------|
-2-0-2-2--2-0-2-232----------|
-2-0-2-2--2-0-2-232----------|
 . . . .  . . .
*Interlude 2 is interlude 1 without palm mutes and quickly
stopping notes when played.
*Play Interlude 1 again.
Página 1 / 1

Letras e título
Acordes e artista

resetar configurações
OK