Cifra Club

Feliz Pra Cachorro

5 à Seco

Cifra: Principal
exibições 91.196
Tom: C
[Intro] Em7(9)  Em6(9)

E|-----------------------------------------------|
B|-----------------------------------------------|
G|---------------------3-------------------------|  (2x)
D|-------0h2p0---------2----------0h2p0----------|
A|--0h2p0--------------2----0h2p0----------------|
E|-------------3b-0-0--0----------------3b--0-0--|

Em7(9)             Em6(9)
Pensa num cara que anda feliz
      Am7(9)  Am6(9)
Pra cachorro
Em7(9)                Em6(9)
Mas pensa assim num cachorro
             Am9
Pra lá de feliz
A4(7)       Am7(9)
Desde que te vi, que o chão não
    G9                       C9
Tem fundo, que o céu não tem forro
            E11+        riff 1
Cantarolo e morro de rir

Riff 1
E|-------------------------------------------------------|
B|-----3---------2---------3-----------------------------|
G|-------0---------0---------0---------------------------|
D|---------2---------2---------2------------0h2p0--------|
A|------------------------------------0h2p0--------------|
E|---0---------0---------0---------0---------------3b----|

Em7(9)             Em6(9)
Todo feliz como um gol numa
       Am7(9)   Am6(9)
Copa do mundo
Em7(9)             Em6(9)
No fim do segundo tempo da
       Am9
Prorrogação
A4(7)       Am7(9)           G9
Desde que te vi é farra pra tudo
            C9
Tem funk no morro do fundo do
E11+       Em7(9) Em6(9) Em7(9) Em6(9)
Meu coração

Em7(9)  Em6(9)  Am9   A4(7)      C9
Tão raro de se ver, param pra dizer
        Bm(b6)           Em7(9)
Para eu ser feliz para lá
  B7/D#          Em7(9)
Peraí, o que é que há?
     Em7(9)  Em6(9)       Am7(9)
Quero ver quem vai me impedir
Am6(9)  C9    Bm(b6)      E11+
De sorrir do Pari até o Pará

Riff 1
E|-------------------------------------------------------|
B|-----3---------2---------3-----------------------------|
G|-------0---------0---------0---------------------------|
D|---------2---------2---------2------------0h2p0--------|
A|------------------------------------0h2p0--------------|
E|---0---------0---------0---------0---------------3b----|

Em7(9)              Em6(9)
Pensa num cara que anda
            Am7(9)  Am6(9)
Contente pra burro
Em7(9)                 Em6(9)
Mas pensa um burro contente que
          Am9
Nem um sagui
A4(7)        Am7(9)
Desde que te vi, parei de dar
G9                C9
Murros em ponta de faca
                E11+           (riff 1)
Deu caca, eu dou urros de rir

Riff 1
E|-------------------------------------------------------|
B|-----3---------2---------3-----------------------------|
G|-------0---------0---------0---------------------------|
D|---------2---------2---------2------------0h2p0--------|
A|------------------------------------0h2p0--------------|
E|---0---------0---------0---------0---------------3b----|

Em7(9)            Em6(9)
Todo contente que nem são os
           Am7(9)  Am6(9)
Gols de chaleira
Em7(9)            Em6(9)
A zaga inteira batida e o goleiro
    Am9
No chão
A4(7)        Am7(9)               G9
Desde que te vi, não tenho enjoeira,
            C9
Nem segunda-feira ou canseira no
E11+         Em7(9) Em6(9) Em7(9) Em6(9)
Meu coração

Em7(9)  Em6(9)  Am9   A4(7)      C9
Tão raro de se ver, param pra dizer
        Bm(b6)           Em7(9)
Para eu ser feliz para lá
  B7/D#          Em7(9)
Peraí, o que é que há?
     Em7(9)  Em6(9)       Am7(9)
Quero ver quem vai me impedir
Am6(9)  C9    Bm(b6)      E11+
De sorrir do Pari até o Pará
Em7(9)  Em6(9)  Am9   A4(7)      C9
Tão raro de se ver, param pra dizer
        Bm(b6)           Em7(9)
Para eu ser feliz para lá
  B7/D#          Em7(9)
Peraí, o que é que há?
     Em7(9)  Em6(9)       Am7(9)
Quero ver quem vai me impedir
Am6(9)  C9    Bm(b6)      E11+
De sorrir do Pari até o Pará

[Final] Em7(9)  Em6(9)  Em7(9)  Em6(9)
Acordes para:
    Composição: Pedro Viáfora / Celso ViáforaColaboração e revisão:

    0 comentários

      mostrar mais comentários

      Conseguiu tocar?

      9tocaram4ainda não

      Grave um vídeo tocando Feliz Pra Cachorro e mande pra gente!

      00:00 / 00:00
      outros vídeos desta música
      repetirqualidadeautomática
      Outro vídeos desta música
        00:00 / 00:00
        automática
        OK