Cifra Club

Disconnected

5 Seconds Of Summer

Cifra: Principal (violão e guitarra)
tom: D
Intro 

E|----------------5------------------------------------------|
B|---3---3---3---------5---5---5---5h7-----------------------|
G|-----------------------------------------------------------|
D|-----------------------------------------------------------|
A|-----------------------------------------------------------|
E|-----------------------------------------------------------|

E|----------------5------------------------------------------|
B|---3---3---3---------5---5---5---5/7/5---------------------|
G|-----------------------------------------------------------|
D|-----------------------------------------------------------|
A|-----------------------------------------------------------|
E|-----------------------------------------------------------|

Oh, oh, o-o-oh

Play the intro during verse

                    
Life's a tangled web of cell phone calls
And hashtag I-don't-knows
And you
You're so caught up
In all the blinking lights and dial tones


I admit I'm a bit of a victim
In the worldwide system too
But I found my sweet escape
When I'm alone with you


Tune out the static sound
Of the city that never sleeps
Here in the moment
On the dark side of the screen

G#4(6)
I like the Summer rain
A/E
I like the sounds you make
G/D
We put the world away

We get so disconnected
G#4(6)
You are my getaway
A/E
You are my favorite place
G/D
We put the world away

Yeah, we're so disconnected

E|-----------------------------------------------------------|
B|-----------------------------------------------------------|
G|-------------------14--------------------------------------|
D|---12---12---12---------14---14---14---14h16---------------|
A|-----------------------------------------------------------|
E|-----------------------------------------------------------|

E|-----------------------------------------------------------|
B|-----------------------------------------------------------|
G|-------------------14--------------------------------------|
D|---12---12---12---------14---14---14---14/16/14------------|
A|-----------------------------------------------------------|
E|-----------------------------------------------------------|


 G#4(6)    A/E
Oh, oh, o-o-oh
(We're so disconnected)
G/D
Oh, oh, o-o-oh


Play the intro dunring Verse

Verse 2

                          
Hands around my waist
You're counting up the hills
Across the sheets
And I'm a fallin star
A glimmer lighting
Up these cotton streets


I admit I'm a bit of fool
For playing by the rules
But I've found my sweet escape
When I'm alone with you


Tune out the static sound
Of the city that never sleeps
Here in the moment
On the dark side of the screen

G#4(6)
I like the Summer rain
A/E
I like the sounds you make
G/D
We put the world away

We get so disconnected
G#4(6)
You are my getaway
A/E
You are my favorite place
G/D
We put the world away

Yeah, we're so disconnected

E|-----------------------------------------------------------|
B|-----------------------------------------------------------|
G|-------------------14--------------------------------------|
D|---12---12---12---------14---14---14---14h16---------------|
A|-----------------------------------------------------------|
E|-----------------------------------------------------------|

E|-----------------------------------------------------------|
B|-----------------------------------------------------------|
G|-------------------14--------------------------------------|
D|---12---12---12---------14---14---14---14/16/14------------|
A|-----------------------------------------------------------|
E|-----------------------------------------------------------|


 G#4(6)    A/E
Oh, oh, o-o-oh
(We're so disconnected)
G/D
Oh, oh, o-o-oh


G#4(6)
Turn off the radio
A/E
Those late night TV shows
G/D
Hang up the telephone

And just be here with me
G#4(6)
Turn off the radio
A/E
Those late night TV shows
G/D
Hang up the telephone

And just be here with me


E|-----------------------------------------------------------|
B|-----------------------------------------------------------|
G|-------------------14--------------------------------------|
D|---12---12---12---------14---14---14---14/16/14------------|
A|-----------------------------------------------------------|
E|-----------------------------------------------------------|


G#4(6)
I like the Summer rain
A/E
I like the sounds you make
G/D
We put the world away

We get so disconnected
G#4(6)
You are my getaway
A/E
You are my favorite place
G/D
We put the world away

Yeah, we're so disconnected

G#4(6)
I like the Summer rain
A/E
I like the sounds you make
G/D
We put the world away

We get so disconnected
G#4(6)
You are my getaway
A/E
You are my favorite place
G/D
We put the world away

Yeah, we're so disconnected

E|-----------------------------------------------------------|
B|-----------------------------------------------------------|
G|-------------------14--------------------------------------|
D|---12---12---12---------14---14---14---14h16---------------|
A|-----------------------------------------------------------|
E|-----------------------------------------------------------|

E|-----------------------------------------------------------|
B|-----------------------------------------------------------|
G|-------------------14--------------------------------------|
D|---12---12---12---------14---14---14---14/16/14------------|
A|-----------------------------------------------------------|
E|-----------------------------------------------------------|


 G#4(6)    A/E
Oh, oh, o-o-oh
(We're so disconnected)
G/D
Oh, oh, o-o-oh
00:00 / 00:00
Outros vídeos desta música
Repetir
Outros vídeos desta música
Composição de 5 Seconds Of Summer / Alex Gaskarth / John Feldman
Colaboração e revisão:
8.010 exibições
    • ½ Tom
    • A
    • Bb
    • B
    • C
    • Db
    • D
    • Eb
    • E
    • F
    • F#
    • G
    • Ab
  • Adicionar à lista

    0 comentários

    Ver todos os comentários

    Conseguiu tocar?

    9 Tocaram 1 Ainda não

    Grave um vídeo tocando Disconnected e nos envie!

    Entre para oCifra Club PRO

    Tenha acesso a benefícios exclusivos no App e no Site

    • Chega de anúncios

    • Prioridade de compra em lançamentos

    • Mais recursos no app do Afinador

    • Atendimento Prioritário

    • Descontos nos produtos Cifra Club

    • Ajude a produzir mais conteúdo

    00:00 / 00:00

    Cifra Club Pro

    Aproveite o Cifra Club com benefícios exclusivos e sem anúncios
    Cifra Club Pro
    Aproveite o Cifra Club com benefícios exclusivos e sem anúncios
    OK