Cifra Club

Jet Black Heart

5 Seconds Of Summer

Cifra: Principal (violão e guitarra)
tom: E (forma dos acordes no tom de D) Capotraste na 2ª casa
[Intro]  C#(b9)  G#(b9)  A9  B2

E|---------------------10----|
B|------8------8-----8----8--|
G|--11-----11-----11---------|
D|---------------------------|
A|---------------------------|
E|---------------------------|

                      C#(b9)
Everybody's got their demons
                   G#(b9)
even wide awake or dreaming
A9                               B2
I'm the one who ends up leaving, make it ok

                  C#(b9)
See a war I wanna fight it
G#(b9)
See a match I wanna strike it
A9                       B2
Every fire I've ignited faded to grey

[Pré-Refrão]

E|---------------------------|
B|---------------------------|
G|--6-7-6-7-6-7-6-7----------|
D|---------------------------|
A|---------------------------|
E|---------------------------|

                      C#(b9)
But now that I'm broken
        G#(b9)
And now that you know it
      A9
Caught up in a moment
        B2
Can you see inside?

cuz I've got a jet black heart
                             B2
And there's a hurricane underneath it
          C#(b9)       A9
Trying to keep us apart
  E2            B2      C#(b9)
I write with a poison pen
            A9                 E2
But these chemicals moving between us
        B2        C#(b9)    A9
Are the reason to start again

E|---------------------10----|
B|------8------8-----8----8--|
G|--11-----11-----11---------|
D|---------------------------|
A|---------------------------|
E|---------------------------|

                      C#(b9)
Now im holding on for dear life
                             G#(b9)
There's no way that we could rewind 
A9
Maybe there's nothing after midnight
     B2
That could make you stay

[Pré-Refrão]

E|---------------------------|
B|---------------------------|
G|--6-7-6-7-6-7-6-7----------|
D|---------------------------|
A|---------------------------|
E|---------------------------|

                      C#(b9)
But now that I'm broken
        G#(b9)
And now that you know it
      A9
Caught up in a moment
        B2
Can you see inside?

     B2         C#(b9)        A9
Cuz I've got a jet black heart
                  E2          B2
And there's a hurricane underneath it
          C#(b9)       A9
Trying to keep us apart
  E2            B2      C#(b9)
I write with a poison pen
            A9                 E2
But these chemicals moving between us
        B2        C#(b9)    A9
Are the reason to start again

E|---------------------10----|
B|------8------8-----8----8--|
G|--11-----11-----11---------|
D|---------------------------|
A|---------------------------|
E|---------------------------|  (woah, woah)

C#(b9)                                  G#(b9)
The blood in my veins is made up of mistakes
A9                             B2          C#(b9)
Lets forget who we are and dive into the dark
G#(b9)             A9                  B2
As we burst into color we turn into life

cuz I've got a jet black heart
                             B2
And there's a hurricane underneath it
          C#(b9)       A9
Trying to keep us apart
  E2            B2      C#(b9)
I write with a poison pen
            A9                 E2
But these chemicals moving between us
        B2        C#(b9)    A9
Are the reason to start again

A       Bm            G
(The blood in my veins is made up of mistakes)
A         Bm          G
Lets forget who we are and dive in)

E|---------------------10----|
B|------8------8-----8----8--|
G|--11-----11-----11---------|  (2x)
D|---------------------------|
A|---------------------------|
E|---------------------------|

E|---------------------10--------|
B|------8------8-----8----8----8-|
G|--11-----11-----11--------11---|
D|-------------------------------|
A|-------------------------------|
E|-------------------------------|
00:00 / 00:00
Outros vídeos desta música
Repetir
Outros vídeos desta música
Composição de Calum Hood / David Hodges / Jon Green / Michael Clifford
Colaboração e revisão:
  • Leoh Passagnolo
  • Thais Pilar
20.415 exibições
    • ½ Tom
    • A
    • Bb
    • B
    • C
    • Db
    • D
    • Eb
    • E
    • F
    • F#
    • G
    • Ab
  • Adicionar à lista

    0 comentários

    Ver todos os comentários

    Conseguiu tocar?

    8 Tocaram 1 Ainda não

    Grave um vídeo tocando Jet Black Heart e nos envie!

    Entre para oCifra Club PRO

    Tenha acesso a benefícios exclusivos no App e no Site

    • Chega de anúncios

    • Prioridade de compra em lançamentos

    • Mais recursos no app do Afinador

    • Atendimento Prioritário

    • Descontos nos produtos Cifra Club

    • Ajude a produzir mais conteúdo

    00:00 / 00:00

    Cifra Club Pro

    Aproveite o Cifra Club com benefícios exclusivos e sem anúncios
    Cifra Club Pro
    Aproveite o Cifra Club com benefícios exclusivos e sem anúncios
    OK