Cifra Club

She's Kinda Hot

5 Seconds Of Summer

Cifra: Principal (violão e guitarra)
tom: E
INTRO:
E|---------------------------------------------------------------------------------------
B|---------------------------------------------------------------------------------------
G|---------------------------------------------------------------------------------------
D|---------------------------------------------------------------------------------------
A|-------------2----4----2--------------------------2----4----2---------------------
E|--0----4---------------------4---2---0----4----------------------4----2-----0---

E
My girlfriend's bitchin' cause I always sleep in
E
She's always screaming when she's calling her friends
A
She's kinda hot though
E
Yeah she's kinda hot though

E
My shrink is telling me I've got crazy dreams
E
She's also saying I've got low self-esteem
A
She's kinda hot though
E
Yeah she's kinda hot though

E|--------------------------------------------------------------------------------------------------
B|--------------------------------------------------------------------------------------------------
G|--------------------------------------------------------------------------------------------------
D|----------------4-----6-----4---------------------------------2------4------2----------------
A|----2----6------------------------6------2-------0-----4-------------------------4-----2-----
E|--------------------------------------------------------------------------------------------------

E|---------------------------------------------------------------------------------------
B|---------------------------------------------------------------------------------------
G|---------------------------------------------------------------------------------------
D|---------------------------------------------------------------------------------------
A|-------------2----4----2-------------------------2-----4-------------------------------
E|--0----4---------------------4---2---0----4----------------------------------------

B
She put me on meds
A
She won't get out of my head
E
She's kinda hot though

E
My friend left college cause it felt like a job
His mum and dad both think he's a slob
A
He's got a shot though
E
Yeah, he's got a shot though

B
When you've got bigger plans
A
That no one else understands
E
You've got a shot though

E
They say we're losers but we're all alright with that
C#m
We are the leaders of the not coming backs
A
But we're alright though
E
Yeah we're alright though

B                                A
We are the kings and the queens of the new broken scene
E
Yeah we're alright though

E
Sometimes I'm feeling like I'm going insane
E
My neighbour told me I've got bad brains
A
But I'm alright though
E
Yeah we'll be alright though

B                                     A
Cause we're the kings and the queens of the new broken scene
E
But we're alright though

B                                A
We are the kings and the queens of the new broken scene
E
Yeah we're alright though
00:00 / 00:00
Outros vídeos desta música
Repetir
Outros vídeos desta música
Composição de Ashton Irwin / Benjamin Madden / Joel Madden / John Feldmann / Michael Clifford
Colaboração e revisão:
25.415 exibições
    • ½ Tom
    • A
    • Bb
    • B
    • C
    • Db
    • D
    • Eb
    • E
    • F
    • F#
    • G
    • Ab
  • Adicionar à lista

    0 comentários

    Ver todos os comentários

    Conseguiu tocar?

    12 Tocaram 2 Ainda não

    Grave um vídeo tocando She's Kinda Hot e nos envie!

    Entre para oCifra Club PRO

    Tenha acesso a benefícios exclusivos no App e no Site

    • Chega de anúncios

    • Prioridade de compra em lançamentos

    • Mais recursos no app do Afinador

    • Atendimento Prioritário

    • Descontos nos produtos Cifra Club

    • Ajude a produzir mais conteúdo

    00:00 / 00:00

    Cifra Club Pro

    Aproveite o Cifra Club com benefícios exclusivos e sem anúncios
    Cifra Club Pro
    Aproveite o Cifra Club com benefícios exclusivos e sem anúncios
    OK