Cifra Club

Oração

A Banda Mais Bonita da Cidade

Tab de baixo: Principal
exibições 2.367
G|--------------------------------------------------------------------------------------------
D|-0--0-0---------------------------------------------------------------------0--0-0---0--0-0-
A|----------0--0-0---9--9-9--7--7-7---7--7-7---7--7-7---7--7-7---7--7-7---7-------------------
E|--------------------------------------------------------------------------------------------

G|--------------------------------------------------------------------------------------------
D|------------------------------0--0-0---0--0-0---------------------0--0-0---0--0-0-----------
A|------------3--3-3---3--3-3---------------------3--3-3---3--3-3-----------------------------
E|--------------------------------------------------------------------------------------------
Composição: A Banda Mais Bonita da Cidade Colaboração e revisão:
  • Gabriel Rodrigues

0 comentários

    mostrar mais comentários

    Conseguiu tocar?

    0tocaram0ainda não

    Grave um vídeo tocando Oração e mande pra gente!

    00:00 / 00:00
    outros vídeos desta música
    repetirqualidadeautomática
    Outro vídeos desta música
      00:00 / 00:00
      automática
      OK