Hermit Crab Intro

A Billion Ernies

tom: F#
E |-----------------------------------------------------------|
B |-----------------------------------------------------------|
G |-----------------------------------------------------------|
D |--1111xx-1111xx-1111xx-1111xx-0000xx-0000xx-0000xx-0000xx--|
A |--3333xx-3333xx-3333xx-2222xx-2222xx-2222xx-1111xx-1111xx--|
E |--3333xx-3333xx-3333xx-3333xx-3333xx-3333xx-3333xx-2222xx--|

E |-------------------------------------------------------------------|
B |-------------------------------------------------------------------|
G |----------------7~-------------------------------------------------|
D |----------8~---------8~-----8----7---6-----------------------------|
A |-------5~----------5~---------10---9---8-10p7-9p6-8p5-7p4-6p3-5p2--|
E |--\\6~-------6~----------6~----------------------------------------|

Página 1 / 1

Letras e título
Acordes e artista

resetar configurações
OK