If Only They Knew

A Rocket To The Moon

Composição de: A Rocket To The Moon
tom: D
(intro)

(guitar 1 - rhythm)
E|-----------------------------------------------------------|
B|-----------------------------------------------------------|
G|----------------8------------------------------------------|   x2
D|-----6--então---8--então--8---então---10-------------------|
A|-----6--------6-----------8-----------10-------------------|
E|---4--------------------6-----------8----------------------|

(guitar 2 - leads)
E|-----------------------------------------------------------|
B|-----------------------------------------------------------|
G|--------------8--------------------------------------------|
D|---6--então---8--então-10-\---8----------------------------|
A|---6--------6----------10-\---8----------------------------|
E|-4--------------------8---\6-------------------------------|

E|-----------------------------------------------------------|
B|-----------------------------------------------------------|
G|----10---10-\--8-\---10-\---12--\--10----\--8--------------|  x2
D|----10---10-\--8-\---10-\---12--\--10----\--8--------------|
A|--8----8----\6---\-8----\10-----\8-------\6----------------|
E|-----------------------------------------------------------|

(verso - guitarra 1 e 2)

Na parte 'talk to me im torn...'

E|-----------------------------------------------------------|
B|-----------------------------------------------------------|
G|-----------------------------------------------------------|
D|--------10----------8--\--10-------------------------------|
A|--------10---então--8--\--10-------------------------------|
E|------8-----------6----\8----------------------------------|

E|-----------------------------------------------------------|
B|-----------------------------------------------------------|
G|-----------------------------------------------------------|
D|-----10---10--\--8----------5-\--6-------------------------|
A|-----10---10--\--8--então---5-\--6-------------------------|
E|---8----8----\6-----------3---\4---------------------------|

Na parte 'tell me if im wrong or right...'

E|-----------------------------------------------------------|
B|-----------------------------------------------------------|
G|-----------------------------------------------------------|
D|--------10----------8--\--10------------8------------------|
A|--------10---então--8--\--10---então----8------------------|
E|------8-----------6----\8-------------6--------------------|

(guitarra 2)

(guitar 2 - lead guitar)

E|-----------------------------------------------------------|
B|-----6h8h6-------------------------------------------------|
G|-----------8-----------------------------------------------|
D|-----------------------------------------------------------|
A|-----------------------------------------------------------|
E|-----------------------------------------------------------|

E|------6--6---------6--------6--6---------6-----------------|
B|------6--6--então--6--então-6--6--então--6-----------------|
G|-----------------8---------------------8-------------------|
D|-----------------------------------------------------------|
A|-----------------------------------------------------------|
E|-----------------------------------------------------------|

(repetir até trocar o verso)

(refrain)

Na parte 'so tell me how this ends..'

(guitar 1)
E|------------------6----------------------------------------|
B|------------------6--x2------------------------------------|
G|-----------------------------------------------------------|
D|----3---------6--------------------------------------------|
A|----3--entao--6--------------------------------------------|
E|--1---------4--------x2------------------------------------|

(guitar 2)
E|------6--6---------6--------6--6---------6-----------------|
B|------6--6--então--6--então-6--6--então--6-----------------|
G|-----------------8---------------------8-------------------|
D|-----------------------------------------------------------|
A|-----------------------------------------------------------|
E|-----------------------------------------------------------|

(repetir até trocar o verso)

(refrão)
(guitarra 1 e 2)

(guitarra 2 só toca nas oitavas)
E|-----------------------------------------------------------|
B|-----------------------------------------------------------|
G|----------------8------------------------------------------|
D|-----6--then----8--then---8---then----10-------------------|
A|-----6--------6-----------8-----------10-------------------|
E|---4--------------------6-----------8----------------------|

E|-----------------------------------------------------------|
B|-----------------------------------------------------------|
G|----------------8------------------------------------------|
D|-----6--then----8--then--10---then----8--------------------|
A|-----6--------6----------10-----------8--------------------|
E|---4--------------------8-----------6----------------------|

Fica diferente as notas na parte 'they'll try to but if only they knew...'

E|-----------------------------------------------------------|
B|-----------------------------------------------------------|
G|---------------------------------8-------------------------|
D|---10--------8-----------6-------8-------------------------|
A|---10-then---8-x2-then---6-x2--6---------------------------|
E|--8--------6-----------4-----------------------------------|

E|-----------------------------------------------------------|
B|-----------------------------------------------------------|
G|-----------------------------------------------------------|
D|---10--------8---------------------------------------------|
A|---10-then---8-x2------------------------------------------|
E|--8--------6-----------------------------------------------|

(volta a intro)

(guitar 1 (rhythm)

E|-----------------------------------------------------------|
B|-----------------------------------------------------------|
G|----------------8------------------------------------------|   x2
D|-----6--then----8--then---8---then----10-------------------|
A|-----6--------6-----------8-----------10-------------------|
E|---4--------------------6-----------8----------------------|

(guitar 2 - leads)
E|-----------------------------------------------------------|
B|-----------------------------------------------------------|
G|--------------8--------------------------------------------|
D|---6--then----8--then--10-\---8----------------------------|
A|---6--------6----------10-\---8----------------------------|
E|-4--------------------8---\6-------------------------------|

E|-----------------------------------------------------------|
B|-----------------------------------------------------------|
G|----10---10-\--8-\---10-\---12--\--10----\--8--------------|  x2
D|----10---10-\--8-\---10-\---12--\--10----\--8--------------|
A|--8----8----\6---\-8----\10-----\8-------\6----------------|
E|-----------------------------------------------------------|

(verso 2)

(guitarra 1 e 2)
E|-----------------------------------------------------------|
B|-----------------------------------------------------------|
G|-----------------------------------------------------------|
D|--------10----------8--\--10------8------------------------|
A|--------10---então--8--\--10------8--x2--------------------|
E|------8-----------6----\8-------6--------------------------|

(solo)
E|-----------------------------------------------------------|
B|-----------------------------------------------------------|
G|-----------------------------------------------------------|
D|--------10----------8--\--10------8------------------------|
A|--------10---then---8--\--10------8--x2--------------------|
E|------8-----------6----\8-------6--------------------------|

(solo)

(refrain)

(guitarra 1 e 2)
E|-----------------------------------------------------------|
B|-----------------------------------------------------------|
G|-----------------------------------------------------------|
D|----3---------5--\--6-\--8---------------------------------|
A|----3--then---5--\--6-\--8---------------------------------|
E|--1---------3----\4---\6-----------------------------------|

(refrão)

(guitarra 1 e 2)

(uitarra 2 só toca nas oitavas)
E|-----------------------------------------------------------|
B|-----------------------------------------------------------|
G|----------------8------------------------------------------|
D|-----6--then----8--then---8---then----10-------------------|
A|-----6--------6-----------8-----------10-------------------|
E|---4--------------------6-----------8----------------------|

E|-----------------------------------------------------------|
B|-----------------------------------------------------------|
G|----------------8------------------------------------------|
D|-----6--then----8--then--10---then----8--------------------|
A|-----6--------6----------10-----------8--------------------|
E|---4--------------------8-----------6----------------------|

Então fica diferente na parte 'they'll try to but if only they knew...'
E|-----------------------------------------------------------|
B|-----------------------------------------------------------|
G|---------------------------------8-------------------------|
D|---10--------8-----------6-------8-------------------------|
A|---10-então--8-x2-então--6-x2--6---------------------------|
E|--8--------6-----------4-----------------------------------|

E|-----------------------------------------------------------|
B|-----------------------------------------------------------|
G|-----------------------------------------------------------|
D|---10--------8--------10---------8---------6---------------|
A|---10-then---8-then---10--then---8--then---6---------------|
E|--8--------6--------8----------6---------4-----------------|

(ponte)

(guitarra 1 e 2)
E|---------------------------------------------------------------------------|
B|---------------------------------------------------------------------------|
G|--------------5-----------------------------8------------------------------|
D|-----6--------5--------6--\--5-\--3---------8--------10----------8---------|
A|----6-then-3---then---6--\--5-\--3-then--6---then----10-then-----8---------|
E|---4-----------------4----\3---\1------------------8-----------6-----------|

(refrão)
(parte com a bateria)

(guitarra toca na parte 'I do baby..')
E|-----------------------------------------------------------|
B|-----------------------------------------------------------|
G|-----------------------------------------------------------|
D|-----10---------8------------------------------------------|
A|-----10--então--8------------------------------------------|
E|---8----------6--------------------------------------------|

E|-----------------------------------------------------------|
B|-----------------------------------------------------------|
G|---------------------------------8-------------------------|
D|---10--------8-----------6-------8-------------------------|
A|---10-then---8-x2-then---6-x2--6---------------------------|
E|--8--------6-----------4-----------------------------------|

E|-----------------------------------------------------------|
B|-----------------------------------------------------------|
G|-----------------------------------------------------------|
D|---10--------8---------------------------------------------|
A|---10-then---8-x2------------------------------------------|
E|--8--------6-----------------------------------------------|

então troca o acorde na musica If Only They Knew para a parte ' they'll try to but if only they knew they'll
come close to you'
E|-----------------------------------------------------------|
B|-----------------------------------------------------------|
G|---------------------------------8-------------------------|
D|---10--------8-----------6-------8-------------------------|
A|---10-then---8-x2-then---6-x2--6---------------------------|
E|--8--------6-----------4-----------------------------------|

E|-----------------------------------------------------------|
B|-----------------------------------------------------------|
G|-----------------------------------------------------------|
D|---10--------8---------------------------------------------|
A|---10-then---8-x2------------------------------------------|
E|--8--------6-----------------------------------------------|

(intro)

(guitar 1 - rhythm)
E|-----------------------------------------------------------|
B|-----------------------------------------------------------|
G|----------------8------------------------------------------|   x2
D|-----6--then----8--then---8---then----10-------------------|
A|-----6--------6-----------8-----------10-------------------|
E|---4--------------------6-----------8----------------------|

(guitar 2 - leads)
E|-----------------------------------------------------------|
B|-----------------------------------------------------------|
G|--------------8--------------------------------------------|
D|---6--then----8--then--10-\---8----------------------------|
A|---6--------6----------10-\---8----------------------------|
E|-4--------------------8---\6-------------------------------|

E|-----------------------------------------------------------|
B|-----------------------------------------------------------|
G|----10---10-\--8-\---10-\---12--\--10----\--8--------------|  x2
D|----10---10-\--8-\---10-\---12--\--10----\--8--------------|
A|--8----8----\6---\-8----\10-----\8-------\6----------------|
E|-----------------------------------------------------------|
Página 1 / 1

Letras e título
Acordes e artista

resetar configurações
OK