Cifra Club

The All Star Diaries

A Skylit Drive

Cifra: Principal (violão e guitarra)
tom: F
Tuning: EADG

Intro
"Why you so scared?"
1.
G|-----------------------------------------------------|
D|-----------------------------------------------------|
A|-0000--0000-0000-0000--0000-0000---------------------|
E|---------------------------------1~--------1~--------|

2.
G|-----------------------------------------------------|
D|-----------------------------------------------------|
A|-----------------------------------------------------|
E|-3333--3333-3333-3333--3333-3333-1~--------1~--------|

"I am a non worthy sinner..." 
3.
G|-----------------------------------------|
D|-----------------------------------------|
A|-0~---0~---0~---0~-----------------------|--x2
E|---------------------1~---1~---1~---1~---|

Verse
"Sing a song to me..."
4.
G|-------------------------------------------------------------------------|
D|-------------------------------------------------------------------------|
A|-00000000-00000000-------------------00000000-00000000-------------------|--x2
E|-------------------11111111-11111111-------------------11111111-11111111-|

Chorus
"Wanting more..." 
5.
G|--------------------------------------------------|
D|------------------2-0-3-2-------------------------|
A|-0000~------0000~---------3-----------------------|--x2
E|----------------------------3333333x---3333333x---|

Verse
"Have a seat in my car..."
4.
G|-------------------------------------------------------------------------|
D|-------------------------------------------------------------------------|
A|-00000000-00000000-------------------00000000-00000000-------------------|--x2
E|-------------------11111111-11111111-------------------11111111-11111111-|

Chorus
"Why you so..."
5.
G|-----------------------------------------------------|
D|-----------------------------------------------------|
A|-0000--0000-0000-0000--0000-0000---------------------|
E|---------------------------------1~--------1~--------|

6.
G|-----------------------------------------------------|
D|-----------------------------------------------------|
A|-----------------------------------------------------|
E|-3333--3333-3333-3333--3333-3333-1~--------1~--------|

Outro
7.
G|-----------------------------------------|
D|-----------------------------------------| For a few times
A|-0~--------0~----------------------------|
E|---------------------1~--------1~--------|

Verse
"With your hands on me..."
8.
G|-------------------------------------------------------------------------|
D|-------------------------------------------------------------------------|
A|-00000000-00000000-------------------00000000-00000000-------------------|--x2
E|-------------------11111111-11111111-------------------11111111-11111111-|

Chorus
"Why you so..."
9.
G|-----------------------------------------------------|
D|-----------------------------------------------------|
A|-0000--0000-0000-0000--0000-0000---------------------|
E|---------------------------------1~--------1~--------|

10.
G|-----------------------------------------------------|
D|-----------------------------------------------------|
A|-----------------------------------------------------|
E|-3333--3333-3333-3333--3333-3333-1~--------1~--------|

Outro
11.
G|--------------------------------------------------------|
D|--------------------------------------------------------|
A|-0~----1/2x----------------0~----1/2x-------------------|
E|-----------------------------------------------------1~-|

12.
G|--------------------------------------------------------|
D|--------------------------------------------------------|
A|-0000~---1/2--------------0000~----1/2------------------|
E|-------------1111~---------------------1111~---------1~-|

Chorus
"Why you so..."
13.
G|----------------------------------|
D|----------------------------------|
A|-0000--0000-0000-0000--0000-0000x-|
E|----------------------------------|

Lyrics:

Why you so scared?

I am a non worthy sinner
Still I pray for you
When will you be the star in the sky for me
All eyes on you

Sing a song for me
Sing it till you see my face
Lay your trust in me
I'll be your remedy note

Scrambling to shut the door
Leave the cold wanting more
Scrambling to shut the door
Leave the cold wanting more

Embrace your mind
Set it free
Remember everything you lost

Have a seat in my car
We'll take the 99 north past three
I am where still breathing now
I'm not leaving why are you so scared?
Recline the seat back, let's drive
North till the sunrise

Why you so...
I'm not leaving from this parade till I die
Why you so scared?
Why you so scared?

With your hands on me
I'll keep my eyes on you
I'll promise to be
A little secret that will pull you through
Secret passage through the weight of the world

Why you so,
I'm not leaving from this parade till I die
Why you so scared?
Why you so scared?

Hands at my side oh will I live or die
I'll be strong
This is my life
Through open eyes
This is my life
Through open eyes
Why you so scared?
00:00 / 00:00
Outros vídeos desta música
Repetir
Outros vídeos desta música
Composição de A Skylit Drive
Colaboração e revisão:
  • Lucian Santos
982 exibições
    • ½ Tom
    • A
    • Bb
    • B
    • C
    • Db
    • D
    • Eb
    • E
    • F
    • F#
    • G
    • Ab
  • Adicionar à lista

    0 comentários

    Ver todos os comentários

    Entre para oCifra Club PRO

    Tenha acesso a benefícios exclusivos no App e no Site

    • Chega de anúncios

    • Prioridade de compra em lançamentos

    • Mais recursos no app do Afinador

    • Atendimento Prioritário

    • Descontos nos produtos Cifra Club

    • Ajude a produzir mais conteúdo

    00:00 / 00:00

    Cifra Club Pro

    Aproveite o Cifra Club com benefícios exclusivos e sem anúncios
    Cifra Club Pro
    Aproveite o Cifra Club com benefícios exclusivos e sem anúncios
    OK