Cifra Club

The Shooting Star That Destroyed Us All

A Static Lullaby

Cifra: Principal (violão e guitarra)
exibições 3.581
Tom: F
Afinação: B E A D G B e [7 cordas]

Intro[x1]:

     F        D        A        A#
e|--------|--------|--------|--------|
B|--------|--------|--------|--------|
G|----5---|--------|----9---|----10--|
D|--3-----|----7---|--7-----|--8-----|
A|--------|--5-----|--------|--------|
E|--------|--------|--------|--------|

Refrão[x1]:

F                  D
 A star up in the sky
               A
 a poem to the dead
             
 let this mistake 
         A#
 bring a vivid crystal to her eyes
F                D
 So drain out my lungs
                           A
 before the fluid brings a shoke 

 i cannot inhale
     A#
 the sparkle of your voice

F           D            A         A#
 Let me walk on high wire of rusty nails
F              D        A             A#           D
 While barefoot shedding the flesh of our existance


Riff 1[x4]:

    D5
e|--------------------------------------|
B|--------------------------------------|
G|--9-7---10--12--10--9-----------------|
D|--x-x---x---x---x---x--7--------------|
A|--7-5---8---10--8---7--x--------------|
E|-----------------------5--------------|

I don't want anubody to fall

Riff 2[x2 abafado, x2 normal]

                    C C
e|--------------------------|
B|--------------------------|
G|---777-333-222-555555-----|
D|--------------------------|
A|--------------------------|
E|--------------------------|

Refrão[x1]:

F                  D
 A star up in the sky
               A
 a poem to the dead
             
 let this mistake 
         A#
 bring a vivid crystal to her eyes
F                D
 So drain out my lungs
                           A
 before the fluid brings a shoke 

 i cannot inhale
     A#                   D
 the sparkle of your voice

 Now´s the time
 Now´s the time

e|-------10-|
B|----9-----|
G|--7-------|

Outro:

D C    D    D D  C
   The more I try
       D    D D   C
   the more I lose
   D   D D  C
   But today
              D  D   D  C
   Will you remember me?
   D   D D
   But today
              D  D   D
   Will you remember me?
   D   D D
   But today
   D D  D   E F
   Your eyes


     D   E F
Your eyes
     D    E F
They shine
     D   E F
Your eyes

E     F                      E
 Your eyes, they shine, your eyes
E     F                      A
 Your eyes, they shine, your eyes
A     F                      A   C
 Your eyes, they shine, your eyes

     D   E F
Your Eyes
     D   E F
Your eyes
     D    E F
They shine
     D   E F
Your eyes

Outro[x2]:

D E  F
  Walking home
   D           E   F
  Street lights go out

Refrão[x1]

Solo:

    F           D          A       A#
e|-------------------------5-5-5-5-6-6-6-6--|
B|--5-6-5-6-5-6-5-6-5-6-5-6-----------------|

Ending:
                                                    F F
e|-------------------------------------------------------|
B|--5-6-5-6-5-6-5-6-5-6-5-6-5-6-5-6-5-6-5-6-5-6-5-6-5-5--|
G|-------------------------------------------------------|
D|--------------------------2-3-2-3-2-3-2-3-2-3-2-3-2-2--|
Acordes para:
    Colaboração e revisão:
    • Renan Covolan

    0 comentários

    mostrar mais comentários

    Conseguiu tocar?

    0tocaram0ainda não

    Grave um vídeo tocando The Shooting Star That Destroyed Us All e mande pra gente!

    00:00 / 00:00
    outros vídeos desta música
    repetirqualidadeAutomático
    Outro vídeos desta música
      00:00 / 00:00
      OK